Cifra Club

Imagem É Tudo, Sua Cabeça Não Tem Nada

Jason

Cifra: Principal (violão e guitarra)
Tom: E
Intro:
E|---------------------------------------------------------------
B|---------------------------------------------------------------
G|-12-12-12-12-12-13-13--13-13-/12-12-12-12-12-12-10-10-9-9------  (2x)
D| x---x---x--x-x-x-x--x-x-x-x-/x-x-x-x-x-x-x-x-x-x--x--x-x------
A|-10-10-10-10-10-10-10--10-10-/10-10-10-10-10-10-8--8--7--7-----
E|---------------------------------------------------------------

Riff 1:
E|------------------------------
B|------------------------------
G|------------------------------ 
D|-5-5\8\7-7--2-2-3-3-----------
A|-5-5\8\7-7--2-2-3-3-----------
E|-3-3-6\5-5--0-0-1-1-----------

Refrão:
E|-------------------
B|-------------------
G|----------6--------
D|-55\6-5-5-6--------
A|-55\6-5-5-4--------
E|-33\4-3-3----------

(Riff 1)
             
(Refrão)
            
exibições 1.021
Acordes para:
    Colaboração e revisão:
    • Douglas

    0 comentários

    mostrar mais comentários

    Conseguiu tocar?

    1 tocaram 0 ainda não

    Grave um vídeo tocando Imagem É Tudo, Sua Cabeça Não Tem Nada e mande pra gente!

    00:00 / 00:00
    outros vídeos desta música
    repetir qualidade Automático
    Outros vídeos desta música
    00:00 / 00:00
    Automático
    OK