Lobo do Mar

Jauperi

Composição de: Jauperi
tom: C
( C  Dm  C  Dm  C  G )

E|------------33-33--
B|------------33-33--
G|--55--57575-44-44--
D|--55--57575-55-55--
A|--33--35353-55-55--
E|------------33-33--

Solinho:
       C       Dm       C      G    C        Dm      C    G
E|-------------------------------|---------------------------|
B|---------------------------35--|---------------------------|
G|--5555555--5555555--5555555----|5555555--5555555--5575-----|
D|---------75-------75-----------|-------75-------75---------|
A|-------------------------------|---------------------------|
E|-------------------------------|---------------------------|

         C         Dm
O velho lobo do mar
      C         G
O hawaii pra você

   F
Surfou onda do tempo
   Em
Driblou o vento, bateu, gol
   F
A brisa, o mar e o sol atentos

E|--10b12-7b8-5-7b8--
B|-------------------
G|--7b9---4b5-2-4b5--
D|-------------------
A|-------------------
E|-------------------

  Em
Ao velho lobo, o lobo
  F
A força e a coragem
  Em
A sua história escreveu
  F
João, guerreiro, velho lobo
  G
Traga o luar e amplie a fé em deus
Solinho:
       C       Dm       C      G    C        Dm      C    G
E|-------------------------------|---------------------------
B|---------------------------35--|---------------------------
G|--5555555--5555555--5555555----|5555555--5555555--5575-----
D|---------75-------75-----------|-------75-------75---------
A|-------------------------------|---------------------------
E|-------------------------------|---------------------------

  Em                F
No mar do hawaii, surfou
  Em                F
A áfrica em ti, amou
E|------------
B|------------
G|------------
D|------------
A|-------7----
E|--8-10------

Que onda
  F                             Em
O guerreiro, a alma gêmea encontrou
E|--10b12-------
B|--------------
G|---7b9---7b9--
D|--------------
A|---------5b7--
E|--------------

  F                        G
A baiana, o velho lobo e o amor

          C        Dm
O velho lobo do mar
      C         G
O hawaii pra você
E|---------------------
B|--8-8b10-8-----------
G|--------------7b9b7--
D|--5-5b7--5-----------
A|--------------5b7b5--
E|---------------------

       C       Dm       C      G    C        Dm      C    G
E|-------------------------------|---------------------------
B|---------------------------35--|---------------------------
G|--5555555--5555555--5555555----|5555555--5555555--5575-----
D|---------75-------75-----------|-------75-------75---------
A|-------------------------------|---------------------------
E|-------------------------------|---------------------------

  Em                F
No mar do hawaii, surfou
  Em                F
A áfrica em ti, amou
E|------------
B|------------
G|------------
D|------------
A|-------7----
E|--8-10------

Que onda
  F                             Em
O guerreiro, a alma gêmea encontrou
E|--10b12-------
B|--------------
G|---7b9---7b9--
D|--------------
A|---------5b7--
E|--------------

  F                        G
A baiana, o velho lobo e o amor

          C        Dm
O velho lobo do mar
      C         G
O hawaii pra você
E|---------------------
B|--8-8b10-8-----------
G|--------------7b9b7--
D|--5-5b7--5-----------
A|--------------5b7b5--
E|---------------------
Página 1 / 1

Letras e título
Acordes e artista

resetar configurações
OK