Cifra Club

Aprenda

A Falta Que a Falta Faz

Jay Vaquer

Cifra: Principal (violão e guitarra)
tom: A
riff introdutório, enquanto a outra guitarra faz a base em A:

4x
E |----------7---------------------------------------------
B |---7-7h10---10-7-5/7------------------------------------
G |--------------------------------------------------------
D |--------------------------------------------------------
A |--------------------------------------------------------
E |--------------------------------------------------------


bom...na falta de idéia pra organizar essa joça, aqui estão alguns riffs que aparecem
no decorrer da música.


riff pré refrão
"se o desejo é uma desordem..."

2x

E |--------------------------------------------------------
B |--7h10h7h10h7-----------6h9h6h9h6-----------------------
G |--------------------------------------------------------
D |--------------------------------------------------------
A |--------------------------------------------------------
E |--------------------------------------------------------


acorde (A oitavado) tocado durante todo o refrão

E |-5------------------------------------------------------
B |-5------------------------------------------------------
G |--------------------------------------------------------
D |--------------------------------------------------------
A |--------------------------------------------------------
E |--------------------------------------------------------



nota: uso preferencial de power chords e abafados!


F#m                                   A
Outra vez, as coisas ficam fora do lugar
                D
Quando então, começo a me sentir em casa...

D/B                 A/F#
E se o desejo é uma desordem
C#/F
Um "mãos ao alto, fique onde está!"
D9           A
Sem alarde me recolho,
C#
Escolho me calar

REFRÃO

D        F#m E        D              Bm     F#m
E nada vai  desmerecer tudo que ainda somos
E        D
Toda certeza que supomos
Bm        F#m
Mas a vida lá fora
E           D
Tá chamando agora
Bm             F#m
E não demora! Quem dá mais?
E             
Na falta que a falta faz

F#m        F                            A
Outra vez, meus olhos devem me denunciar
             D
Como não reparo no que me atrasa?


D/B                 A/F#
E se o desejo é uma desordem
C#/F
Um "mãos ao alto, fique onde está!"
D           A
Sem alarde me recolho,
C#
Escolho me calar



REFRÃO
D        F#m E        D              Bm     F#m
E nada vai  desmerecer tudo que ainda somos
E        D
Toda certeza que supomos
Bm        F#m
Mas a vida lá fora
E           D
Tá chamando agora
Bm             F#m
E não demora! Quem dá mais?
E             Fm
Na falta que a falta faz

solo

E |--------------------------7-7b9-----12b14---------------
B |-------------------7-9/10-------------------------------
G |---------4---4/7-6--------------------------------------
D |---4-6h7--3---------------------------------------------
A |--------------------------------------------------------
E |--------------------------------------------------------


REFRÃO!
Composição de Jay Vaquer
Colaboração e revisão:
  • João Franco
  • Paulo
48.098 exibições
    • ½ Tom
    • A
    • Bb
    • B
    • C
    • Db
    • D
    • Eb
    • E
    • F
    • F#
    • G
    • Ab
  • Adicionar à lista

    0 comentários

    Ver todos os comentários

    Conseguiu tocar?

    2 Tocaram 0 Ainda não

    Grave um vídeo tocando A Falta Que a Falta Faz e nos envie!

    00:00 / 00:00
    Outros vídeos desta música
    Repetir Qualidade Automático
    Outros vídeos desta música
    00:00 / 00:00
    Automático

    Cifra Club Pro

    Aproveite o Cifra Club com benefícios exclusivos e sem anúncios
    Cifra Club Pro
    Aproveite o Cifra Club com benefícios exclusivos e sem anúncios
    OK