24

Jem

Composição de: Jem Griffiths / Justin Griffiths
tom: C
Tuning:

Intro (Clean)

e|-------------------------------------------------------------------------|
B|------------------------------------------------------------5------------|
G|----------------------------------4-2-5555------4-2-------4--------------|
D|---2-4-2-5555----2-4-2----------2-------------2---------2----------------|
A|-2-------------2-------22-55--0-------------0---------2------------------|
D|-------------------------------------------------------------------------|

Verse (Distortion)

e|-------------------------------------------------------------------------|
B|-------------------------------------------------------------------------|
G|-55555555-22222222-55555555-77777777-------------------------------------|
D|-55555555-22222222-55555555-77777777-------------------------------------|
A|-33333333-00000000-33333333-55555555-------------------------------------|
D|-------------------------------------------------------------------------|

Chorus (Distortion)

e|-------------------------------------------------------------------------|
B|-------------------------------------------------------------------------|
G|-------------22-22-77-44-------------------------------------------------|
D|-22-22-22-22-22-22-77-44-------------------------------------------------|
A|-22-22-22-22-00-00-55-22-------------------------------------------------|
D|-22-22-22-22-------------------------------------------------------------|

Synth Thingy (I'm not 100% sure on this part, so please don't hurt me)

e|-------------------------------------------------------------------------|
B|-7-8-7-9-7-8-7-12-10-9-7-------------------------------------------------|
G|-------------------------------------------------------------------------|
D|-------------------------------------------------------------------------|
A|-------------------------------------------------------------------------|
D|-------------------------------------------------------------------------|


| /  slide up
| \  slide down
| h  hammer-on
| p  pull-off
| ~  vibrato
| +  harmonic
| x  Mute note
===============================================================================
Página 1 / 1

Letras e título
Acordes e artista

resetar configurações
OK