Llegaste Tú

Jesse & Joy

tom: C
C
Hundida yo estaba, ahogada en soledad
Em                               D#m 
Mi corazón lloraba de un vacío total
Dm
Todo lo intenté
F
por donde quiera te busqué
Am                  G
Eras tú mi necesidad
C
Triste y desolada ya no pude soportar
Em
Mas desesperada era imposible de estar
Dm
Todo lo intente
F
por donde quiera te busqué
Am
Eras tú mi necesidad
F              G
Alce mi rostro y

[Refrão]

          C             F
Llegaste tú y todo cambio
          C             F
Llegaste tú la esperanza triunfó
         Dm  G
Llegaste tú volvi a nacer

[Riff]

E|--------------------------------|
B|------------13h15p13--12--------|
G|--12/17------------------12-----|
D|----------------------------12*-|
A|--------------------------------|
E|--------------------------------|

C
Por tanto tiempo quise encontrar la solución
Em
a ese gran vacío que llevaba en mi interior
Dm              F
Todo lo intente por donde quiera te busqué
Am
Eras tú mi necesidad
F              G
Alce mi rostro y

[Refrão]

          C             F
Llegaste tú y todo cambio
          C             F
Llegaste tú la esperanza triunfó
         Dm  G
Llegaste tú volvi a nacer

[Solo]

E|----------------------------13-12-------------------------13-15--|
B|--------13---------------13-------13-------13-----------13-------|
G|--9-10------10-9---9-10---------------10-9----10-9--9-10---------|
D|-----------------------------------------------------------------|
A|-----------------------------------------------------------------|
E|-----------------------------------------------------------------|

          C             F
Llegaste tú y todo cambio
          C             F
Llegaste tú la esperanza triunfó
         Dm  G             C
Llegaste tú volvi a nacer
Página 1 / 1

Letras e título
Acordes e artista

resetar configurações
OK