Cifra Club

Aprenda

Are You Gonna Be My Girl

Jet

Cifra: Principal (violão e guitarra)
Tom: G
Introdução:

(contrabaixo)

         Go!
(Riff 1)

E|-----------------------------------------------------|
B|-----5--7br--7--5------------------------------------|
G|-----5--7br--7--5------------------------------------|
D|-/7----------------7-x-7--5--7-----------------------|
A|-----------------------------------------------------|
E|-----------------------------------------------------|

A  (Riff 1)


Primeira Parte:

    A
So, one, two, three

Take my hand and come with me

Because you look so fine
                             A
And I really wanna make you mine


I say you look so fine
                              A
That I really wanna make you mine


Oh, four, five, six 

C'mon and get your kicks

Now you don't need that money
                        
When you look like that
             A  (Riff 1)
Do ya, honey


Ponte:

 D              C  G
Big black boots
 D              C  G
Long brown hair 
  D            C  G
She's so sweet
 D                        C G
With her "get-back" stare


Primeiro Refrão:

A
  Well I could see 
C
  You home with me
D                            A
  But you were with another man


I know we ain't got 
C
  Much to say
D                        A  E  G
  Before I let you get away

I said: "are you gonna be my girl?"


Segunda Parte:

A  (Riff 1)

         A
Well, so one, two, three

Take my hand and come with me

Because you look so fine
                              A
That I really wanna make you mine


I say you look so fine
                              A
That I really wanna make you mine

     
Oh, four, five, six

C'mon and get your kicks

Now you don't need that money

With a face like that
      A  (Riff 1)
Do ya


Ponte:

 D              C  G
Big black boots
 D              C  G
Long brown hair 
  D            C  G
She's so sweet
 D                        C G
With her "get-back" stare


Segundo Refrão:

A
  Well, I could see
C
  You home with me
D                            A
  But you were with another man


I know we ain't got 
C
  Much to say
D                        A  E  G
  Before I let you get away

I said, are you gonna be my girl?


Solo: A

E|---------------10----------------------12------------|
B|-12b14r12--10------10~---12b14r12--10------10~-------|
G|-----------------------------------------------------|
D|-----------------------------------------------------|
A|-----------------------------------------------------|
E|-----------------------------------------------------|

E|---------------10------------------------------------|
B|-12b14r12--10------10~---12b14r12--10------10--------|
G|---------------------------------------11------------|
D|-----------------------------------------------------|
A|-----------------------------------------------------|
E|-----------------------------------------------------|


Refrão Final:

A
I could see
C
  You home with me
D                            A
  But you were with another man

I know we ain't got 
C
  Much to say
D                        A
  Before I let you get away


Be my girl
C
  Be my girl
D                      A    G  D
  Are you gonna be my girl?
Composição de Cameron Muncey / Nic Cester
Colaboração e revisão:
151.333 exibições
    • ½ Tom
    • A
    • Bb
    • B
    • C
    • Db
    • D
    • Eb
    • E
    • F
    • F#
    • G
    • Ab
  • Adicionar à lista

    0 comentários

    Mostrar mais comentários

    Conseguiu tocar?

    20 Tocaram 0 Ainda não

    Grave um vídeo tocando Are You Gonna Be My Girl e mande pra gente!

    00:00 / 00:00
    outros vídeos desta música
    repetir qualidade Automático
    Outros vídeos desta música
    00:00 / 00:00
    Automático
    Capítulos
    • Tocando a música
    • Dicas Iniciais / Equipamentos
    • Acordes da Introdução
    • Tocando a Introdução
    • Riff 1
    • Ritmo da Introdução
    • Tocando a Primeira Parte
    • Ritmo da Primeira Parte
    • Riff 2
    • Acordes da Ponte
    • Tocando a Ponte
    • Ritmo da Ponte
    • Acordes do Refrão
    • Tocando o Primeiro Refrão
    • Ritmo do Refrão
    • Tocando Segunda Parte - Refrão Final
    • Base do Solo
    • Solo - Parte 1 de 2
    • Solo - Parte 2 de 2
    • Encerramento
    • Ficha Técnica
    OK