Cifra Club

Aprenda

Angel Standing By

Jewel

Cifra: Principal (violão e guitarra)
tom: F#
Intro:

-----------9--------------9------------5-----------5--------------------------
---------9---9----------9---9--------6---6-------6---6------------------------
------10-------10----10-------10---6-------6---6-------6----------------------
---11-------------11-------------4-----------4-----------4--------------------
------------------------------------------------------------------------------
------------------------------------------------------------------------------

------------------------9--------------9--------------------------------------
---------9-----4------9---9----------9---9------------------------------------
------10-----5------10------10----10-------10---------------------------------
---11------6-----11------------11---------------------------------------------
------------------------------------------------------------------------------
------------------------------------------------------------------------------


                                         
-----------9--------------9--------------9--------------9---------------------
---------9---9----------9---9----------9---9----------9---9-------------------
------10-------10----10-------10----10-------10----10-------10----------------
---11-------------11-------------11-------------11----------------------------
------------------------------------------------------------------------------
------------------------------------------------------------------------------
All 


------------------------------------------------------------------------------
------------------------------------------------------------------------------
---------5-----------5-----------5-----------5--------------------------------
-------6---6-------6---6-------6---6-------6---6------------------------------
-----6-------6---6-------6---6-------6---6-------6----------------------------
---4-----------4-----------4-----------4--------------------------------------
through the night


---------2-----------2-----------2-----------2--------------------------------
-------2---2-------2---2-------2---2-------2---2------------------------------
-----3-------3---3-------3---3-------3---3-------3----------------------------
---4-----------4-----------4-----------4--------------------------------------
------------------------------------------------------------------------------
------------------------------------------------------------------------------
I'll be

 
-----------9--------------9--------------9--------------9---------------------
---------9---9----------9---9----------9---9----------9---9-------------------
------10-------10----10-------10----10-------10----10-------10----------------
---11-------------11-------------11-------------11----------------------------
------------------------------------------------------------------------------
------------------------------------------------------------------------------
standing over you



Repete-se o trecho acima com esses versos:

All through the night 
I'll be watching over you



-----------9--------------9---------------------------------------------------
---------9---9----------9---9-------------------------------------------------
------10-------10----10-------10----------------------------------------------
---11-------------11----------------------------------------------------------
------------------------------------------------------------------------------
------------------------------------------------------------------------------
And through 


----------8------------8------------------------------------------------------
--------8---8--------8---8----------------------------------------------------
------9-------9----9-------9--------------------------------------------------
---10-----------10------------------------------------------------------------
------------------------------------------------------------------------------
------------------------------------------------------------------------------
bad dreams 


---------7-----------7--------------------------------------------------------
-------7---7-------7---7------------------------------------------------------
-----8-------8---8-------8----------------------------------------------------
---9-----------9--------------------------------------------------------------
------------------------------------------------------------------------------
------------------------------------------------------------------------------
I'll


---------6-----------6--------------------------------------------------------
-------6---6-------6---6------------------------------------------------------
-----7-------7---7-------7----------------------------------------------------
---8-----------8------------------- -------------------------------------------
------------------------------------------------------------------------------
------------------------------------------------------------------------------
be 


------------------------------------------------------4-4-4-4-----------------
------------------------------------------------------6-6-6-6-----------------
---------5-----------5-----------5-----------5--------6-6-6-6-----------------
-------6---6-------6---6-------6---6-------6---6------6-6-6-6-----------------
-----6-------6---6-------6---6-------6---6-------6----4-4-4-4-----------------
---4-----------4-----------4-----------4--------------4-4-4-4-----------------
right there baby telling you everything is gonna be all right



Repete-se este último trecho com os segintes versos:

And when you cry 
I'll be 
right there baby telling you 
you were never nothing less than beautiful



------------------------------------------------------------------------------
------------------------------------------------------------------------------
---------3-----------3-----------5-----------5--------------------------------
-------4---4-------4---4-------6---6-------6---6------------------------------
-----4-------4---4-------4---6-------6---6-------6----------------------------
---2-----------2-----------4-----------4--------------------------------------
So don't you worry


--------------------------------9--------------9------------------------------
------------------------------9---9----------9---9----------------------------
---------------------------10-------10----10-------10-------------------------
------------------------11-------------11-------------11----------------------
------------------------------------------------------------------------------
------------------------------------------------------------------------------
I'm your Angel standing by
Composição de Jewel
Colaboração e revisão:
  • Marcos Barbosa
1.619 exibições
    • ½ Tom
    • A
    • Bb
    • B
    • C
    • Db
    • D
    • Eb
    • E
    • F
    • F#
    • G
    • Ab
  • Adicionar à lista

    0 comentários

    Ver todos os comentários

    Conseguiu tocar?

    0 Tocaram 0 Ainda não

    Grave um vídeo tocando Angel Standing By e nos envie!

    00:00 / 00:00
    Outros vídeos desta música
    Repetir Qualidade Automático
    Outros vídeos desta música
    00:00 / 00:00
    Automático

    Cifra Club Pro

    Aproveite o Cifra Club com benefícios exclusivos e sem anúncios
    Cifra Club Pro
    Aproveite o Cifra Club com benefícios exclusivos e sem anúncios
    OK