Break Me

Jewel

Composição de: Jewel
tom: Ab (forma dos acordes no tom de G ) Capotraste na 1ª casa
Standard Tuning
*Capo 1st fret*

Intro and Verse (On the cd she starts in the verse
but live she plays it with an intro)

Intro/Verse

e|-----0--|-----0--|-----0--|-----0--|
B|-3-----3|-3-----3|-3-----3|-3-----3|
G|---0----|---0----|---0----|---0----|
D|--------|--------|--------|--------|      
A|--------|--------|-2------|-3------|
E|-3------|-2------|--------|--------|

*Live Version Part*---The last time in the verse she ends with

e|----2------0-2-----3-2---|
B|--3-----3-----3-3-----3--|
G|-------------------------|
D|0------------------------|
A|-------------------------|
E|-------------------------|

Chorus

e|-----0--|-----3--|-----3--|-----0--|*|-------3--|
Página 1 / 1

Letras e título
Acordes e artista

resetar configurações
OK