Cifra Club

Aprenda

You Were Meant For Me

Jewel

Cifra: Versão 4 (violão e guitarra)
Já pensou em usar uma coleção de roupas do Cifra Club? Responda as perguntas abaixo e nos ajude nessa missão! →
tom: C
By: Meg42
Email: *

This is a great "guitar song", and if you play with the recording its tuned a half step down
otherwise it doenst make too much of a difference.  Its pretty perfect, but if ya have 
questions or comments feel free to email me.

Intro: Play 3 times
e|-------------0---|-------------0---|-------------0---|-------------0---|
b|---------3-----3-|---------3-----3-|---------1-----1-|---------0-----0-|
g|---0-------------|---0-------------|---0-------------|---0-------------|
d|-----2-----------|-----0-----------|-----2-----------|-----2-----------|
a|-3---------------|-2---------------|-3---------------|-----------------|
E|-----------------|-----------------|-----------------|-0---------------|

e|-------------0---|-------------0---|-------------0---|-------------0---|
b|---------3-----3-|---------3-----3-|---------1-----1-|---------0-----0-|
g|---0-------------|---0-------------|---0-------------|---0-------------|
d|-----2-----------|-----0-----------|-----2-----------|-----2-----------|
a|-3---------------|-2---------------|-3---------------|-----------------|
E|-----------------|-----------------|-----------------|-0---------------|

I hear the clock, at six a.m i feel so far from where i've been

e|-------------0---|-------------0---|-------------0---|---------3-------|
b|---------3-----3-|---------3-----3-|---------1-----1-|---3---------3---|
g|---0-------------|---0-------------|---0-------------|-----2---------2-|
d|-----2-----------|-----0-----------|-----2-----------|-0---------------|
a|-3---------------|-2---------------|-3---------------|-----------------|
E|-----------------|-----------------|-----------------|-----------------|

I've got my eggs i've got my pancakes too, i've got my maple syrup, everything but you

e|-------------0---|-------------0---|-------------0---|-------------0---|
b|---------3-----3-|---------3-----3-|---------1-----1-|---------0-----0-|
g|---0-------------|---0-------------|---0-------------|---0-------------|
d|-----2-----------|-----0-----------|-----2-----------|-----2-----------|
a|-3---------------|-2---------------|-3---------------|-----------------|
E|-----------------|-----------------|-----------------|-0---------------|
i break the yolks and make a smiley face, i kinda like if in my brand new place

e|-------------0---|-------------0---|-------------0---|-------------0---|
b|---------3-----3-|---------3-----3-|---------1-----1-|---------0-----0-|
g|---0-------------|---0-------------|---0-------------|---0-------------|
d|-----2-----------|-----0-----------|-----2-----------|-----2-----------|
a|-3---------------|-2---------------|-3---------------|-----------------|
E|-----------------|-----------------|-----------------|-0---------------|
wipe the spots off of the mirror, dont leave my keys in the door, i never put the 
on the floor anymore

e|-------------0---|---------3-------|-----------------|-------------0---|
b|---------1-----1-|---3---------3---|-------0-------0-|---------0-----0-|
g|---0-------------|-----2---------2-|---0-------0-----|---0-------------|
d|-----2-----------|-0---------------|-----0-------0---|-----2-----------|
a|-3---------------|-----------------|-----------------|-----------------|
E|-----------------|-----------------|-3-------2-------|-0---------------|

Cuz dreams last so long, even after your gone

e|-------------0---|---------3-------|-----------------|-------------0---|
b|---------1-----1-|---3---------3---|-------0-------0-|---------0-----0-|
g|---0-------------|-----2---------2-|---0-------0-----|---0-------------|
d|-----2-----------|-0---------------|-----0-------0---|-----2-----------|
a|-3---------------|-----------------|-----------------|-----------------|
E|-----------------|-----------------|-3-------2-------|-0---------------|
I know, that you love me and soon you will see

e|-------------0---|---------3-------|-------------0---|-------------7---|
b|---------1-----1-|---3---------3---|---------0-----0-|----------7----7-|
g|---0-------------|-----2---------2-|---0-------------|-------7---------|
d|-----2-----------|-0---------------|-----2-----------|----7------------|
a|-3---------------|-----------------|-----------------|-----------------|
E|-----------------|-----------------|-0---------------|-0---------------|
You were meant for me, and i was meant for you

e|-------------0---|-------------0---|-------------0---|---------3-------|
b|---------3-----3-|---------3-----3-|---------1-----1-|---3---------3---|
g|---0-------------|---0-------------|---0-------------|-----2---------2-|
d|-----2-----------|-----0-----------|-----2-----------|-0---------------|
a|-3---------------|-2---------------|-3---------------|-----------------|
E|-----------------|-----------------|-----------------|-----------------|
I called my mama she was out for a walk, Consoled a cup of coffee, but it didnt wanna talk

e|-------------0---|-------------0---|-------------0---|---------3-------|
b|---------3-----3-|---------3-----3-|---------1-----1-|---3---------3---|
g|---0-------------|---0-------------|---0-------------|-----2---------2-|
d|-----2-----------|-----0-----------|-----2-----------|-0---------------|
a|-3---------------|-2---------------|-3---------------|-----------------|
E|-----------------|-----------------|-----------------|-----------------|

So i picked up the paper it was more bad news, More hearts been broken, people been used.


e|-------------0---|-------------0---|-------------0---|-------------0---|
b|---------3-----3-|---------3-----3-|---------1-----1-|---------0-----0-|
g|---0-------------|---0-------------|---0-------------|---0-------------|
d|-----2-----------|-----0-----------|-----2-----------|-----2-----------|
a|-3---------------|-2---------------|-3---------------|-----------------|
E|-----------------|-----------------|-----------------|-0---------------|
PUt on my coat in the pouring rain, i saw a movie it just wasnt the same cuz

e|-------------0---|-------------0---|-------------0---|---------3-------|
b|---------3-----3-|---------3-----3-|---------1-----1-|---3---------3---|
g|---0-------------|---0-------------|---0-------------|-----2---------2-|
d|-----2-----------|-----0-----------|-----2-----------|-0---------------|
a|-3---------------|-2---------------|-3---------------|-----------------|
E|-----------------|-----------------|-----------------|-----------------|
It was happy, oh i was sad and it made me miss you, oh so bad

e|-------------0---|---------3-------|-----------------|-------------0---|
b|---------1-----1-|---3---------3---|-------0-------0-|---------0-----0-|
g|---0-------------|-----2---------2-|---0-------0-----|---0-------------|
d|-----2-----------|-0---------------|-----0-------0---|-----2-----------|
a|-3---------------|-----------------|-----------------|-----------------|
E|-----------------|-----------------|-3-------2-------|-0---------------|

Cuz dreams last so long, even after your gone

e|-------------0---|---------3-------|-----------------|-------------0---|
b|---------1-----1-|---3---------3---|-------0-------0-|---------0-----0-|
g|---0-------------|-----2---------2-|---0-------0-----|---0-------------|
d|-----2-----------|-0---------------|-----0-------0---|-----2-----------|
a|-3---------------|-----------------|-----------------|-----------------|
E|-----------------|-----------------|-3-------2-------|-0---------------|
I know, that you love me and soon you will see

e|-------------0---|---------3-------|-------------0---|---------0----0--|
b|---------1-----1-|---3---------3---|---------0-----0-|------------0----|
g|---0-------------|-----2---------2-|---0-------------|-----------------|
d|-----2-----------|-0---------------|-----2-----------|----2------------|
a|-3---------------|-----------------|-----------------|-----------------|
E|-----------------|-----------------|-0---------------|-0----0----------|
You were meant for me, and i was meant for you

e|-------------0---|---------3-------|-------------2---|-------2---------|
b|---------1-----1-|---3---------3---|---------3-----3-|---3-------------|
g|---2-------------|-----2---------2-|---4-------------|-----2-----0---0-|
d|-----2-----------|-0---------------|-----4-----------|-0---------------|
a|-0---------------|-----------------|-2---------------|---------3---2---|
E|-----------------|-----------------|-----------------|-----------------|
SO i go bout my business, im doing fine besides what would i say if i had you on the line

e|-------------0---|---------3-------|-2---------------|-0---------------|
b|---------1-----1-|---3---------3---|-3---------------|-0---------------|
g|---2-------------|-----2---------2-|-4---------------|-0---------------|
d|-----2-----------|-0---------------|-4---------------|-2---------------|
a|-0---------------|-----------------|-2---------------|-2---------------|
E|-----------------|-----------------|-----------------|-0---------------|
same old story, not much to say.. hearts are broken every day


Interlude thing- play 3 times!
e|-------------0---|-------------0---|-------------0---|-------------0---|
b|---------3-----3-|---------3-----3-|---------1-----1-|---------0-----0-|
g|---0-------------|---0-------------|---0-------------|---0-------------|
d|-----2-----------|-----0-----------|-----2-----------|-----2-----------|
a|-3---------------|-2---------------|-3---------------|-----------------|
E|-----------------|-----------------|-----------------|-0---------------|

e|-------------0---|-------------0---|-------------0---|-------------0---|
b|---------3-----3-|---------3-----3-|---------1-----1-|---------0-----0-|
g|---0-------------|---0-------------|---0-------------|---0-------------|
d|-----2-----------|-----0-----------|-----2-----------|-----2-----------|
a|-3---------------|-2---------------|-3---------------|-----------------|
E|-----------------|-----------------|-----------------|-0---------------|
I brush my teeth i put the cap back on, i know ya hate it when i leave the lights on

e|-------------0---|-------------0---|-------------0---|---------3-------|
b|---------3-----3-|---------3-----3-|---------1-----1-|---3---------3---|
g|---0-------------|---0-------------|---0-------------|-----2---------2-|
d|-----2-----------|-----0-----------|-----2-----------|-0---------------|
a|-3---------------|-2---------------|-3---------------|-----------------|
E|-----------------|-----------------|-----------------|-----------------|
I pick a book up, and turn the sheets back down and theni take a deep breath and a good 
around

e|-------------0---|-------------0---|-------------0---|-------------0---|
b|---------3-----3-|---------3-----3-|---------1-----1-|---------0-----0-|
g|---0-------------|---0-------------|---0-------------|---0-------------|
d|-----2-----------|-----0-----------|-----2-----------|-----2-----------|
a|-3---------------|-2---------------|-3---------------|-----------------|
E|-----------------|-----------------|-----------------|-0---------------|
Put on my pjs, and hop into bed. im half alive but i've been mostly dead

e|-------------0---|-------------0---|-------------0---|---------3-------|
b|---------3-----3-|---------3-----3-|---------1-----1-|---3---------3---|
g|---0-------------|---0-------------|---0-------------|-----2---------2-|
d|-----2-----------|-----0-----------|-----2-----------|-0---------------|
a|-3---------------|-2---------------|-3---------------|-----------------|
E|-----------------|-----------------|-----------------|-----------------|
I try to tell myself it'll be alright, i just shouldnt think any more tonight

e|-------------0---|---------3-------|-----------------|-------------0---|
b|---------1-----1-|---3---------3---|-------0-------0-|---------0-----0-|
g|---0-------------|-----2---------2-|---0-------0-----|---0-------------|
d|-----2-----------|-0---------------|-----0-------0---|-----2-----------|
a|-3---------------|-----------------|-----------------|-----------------|
E|-----------------|-----------------|-3-------2-------|-0---------------|

Cuz dreams last so long, even after your gone

e|-------------0---|---------3-------|-----------------|-------------0---|
b|---------1-----1-|---3---------3---|-------0-------0-|---------0-----0-|
g|---0-------------|-----2---------2-|---0-------0-----|---0-------------|
d|-----2-----------|-0---------------|-----0-------0---|-----2-----------|
a|-3---------------|-----------------|-----------------|-----------------|
E|-----------------|-----------------|-3-------2-------|-0---------------|
I know, that you love me and soon you will see

e|-------------0---|---------3-------|-------------0---|---------0----0--|
b|---------1-----1-|---3---------3---|---------0-----0-|------------0----|
g|---0-------------|-----2---------2-|---0-------------|-----------------|
d|-----2-----------|-0---------------|-----2-----------|----2------------|
a|-3---------------|-----------------|-----------------|-----------------|
E|-----------------|-----------------|-0---------------|-0----0----------|
You were meant for me, and i was meant for you

THats it.. have fun! peace
Composição de Jewel / Steve Poltz
313 exibições
    • ½ Tom
    • A
    • Bb
    • B
    • C
    • Db
    • D
    • Eb
    • E
    • F
    • F#
    • G
    • Ab
  • Adicionar à lista

    0 comentários

    Ver todos os comentários

    Conseguiu tocar?

    0 Tocaram 0 Ainda não

    Grave um vídeo tocando You Were Meant For Me e nos envie!

    00:00 / 00:00
    Outros vídeos desta música
    Repetir Qualidade Automático
    Outros vídeos desta música
    00:00 / 00:00
    Automático

    Cifra Club Pro

    Aproveite o Cifra Club com benefícios exclusivos e sem anúncios
    Cifra Club Pro
    Aproveite o Cifra Club com benefícios exclusivos e sem anúncios
    OK