Cifra Club

Can You See Me

Jimi Hendrix

Tab de baixo: Principal
exibições 436
(standard tuning)

|-------------------------------------------------------|
|---------7-------------------------7-------------------|
|--9--9-9-----7-9--9-9-7---7-9--9-9----7-9--9-9-7-----9-|
|-------------------------------------------------------|


|----------------------------------|
|-9--9--7-9-7-9-7--9--9--7-9-7-9-7-|
|----------------------------------|
|----------------------------------|


|--------------------------------------------------------|
|--------------------------7--9--7-----------------------|
|------------------------9---------7-------------------9-|
|-9-9-9-9--9-9-9-9---7---------------9-9-9-9--9-9-9-9----|


|-------------------------------------------------------|
|---------7-------------------------7-------------------|
|--9--9-9-----7-9--9-9-7---7-9--9-9----7-9--9-9-7-----9-|
|-------------------------------------------------------|


|----------------------------------|
|-9--9--7-9-7-9-7--9--9--7-9-7-9-7-|
|----------------------------------|
|----------------------------------|


|---------|
|---------|
|-9-9-9-9-|
|---------|
play this part a bunch of times through 
the solo then go back to the begining


|---------------|
|----7----------|
|-9-------9--7--|
|---------------|




Composição: Jimi Hendrix

0 comentários

    mostrar mais comentários

    Conseguiu tocar?

    0tocaram0ainda não

    Grave um vídeo tocando Can You See Me e mande pra gente!

    00:00 / 00:00
    outros vídeos desta música
    repetirqualidadeautomática
    Outro vídeos desta música
      00:00 / 00:00
      automática
      OK