Cifra Club

Little Wing

Jimi Hendrix

Cifra: Aula-de-guitarra (violão e guitarra)
tom: Ebm (forma dos acordes no tom de Em) Afinação: Eb Ab Db Gb Bb Eb
[Intro] Em  G  Am  Em
             Bm  Bb  Am  C
             G  F  C  D

   Em
E|-x-12\------------------------------------|
B|-x-12\------x--x----x---------------------|
G|-x-12\------x--x----x------0-------5--5--\|
D|-x----------x--x----x--------------5--5h7\|
A|-x----------x--x----x-0h2-----5h7---------|
E|-x------0---------------------------------|

   G
E|--------3h5p3-----------------------------|
B|--------3------3--------------------------|
G|-----0-----------0-4h5--5--4-5--4---------|
D|-------------------5----5--5-5--5---------|
A|------------------------------------------|
E|-/3-------------------------------3-------|

   Am
E|------------------------------------------|
B|------------------------------------------|
G|----------5---5h7p5-5---------------------|
D|----------5---5-----5h7---5---5-----------|
A|-0----5-7---7-------------5h7-------------|
E|---------------------------------5h7\-----|

   Em
E|--------7---------------------------------|
B|--------8h10p8----------------------------|
G|--------7-------7----------7-7---7--------|
D|--------9----------9-------7-7h9-7----7---|
A|--------7-------------7-10---------10-7---|
E|-0----------------------------------------|

   Bm                      Bb
E|--------9--10-9----7----------------------|
B|--------7-------10---7-------6------------|
G|-----7-----------------x-----7------------|
D|-----------------------x---8-8------------|
A|-----------------------x------------------|
E|-/7----------------------6----------------|

   Am                C   
E|------------------------------------------|
B|----5-------------------------------------|
G|----5--5---5--5---------5--5--5-----------|
D|----7--7h9-7--5--5-5----5--7--5-----------|
A|-0--0------------8-7----------------------|
E|---------------------------------5/7\-----|

   G               F
E|-------5/7--5-x--5\3--------3-------------|
B|-------3/5--3-x--3\1-----1----1-----------|
G|----0--0----0-x--0---------------0--------|
D|-------5/7--5-x--5\3----------------------|
A|------------------------------------------|
E|-3--------------------1-------------------|

   C
E|------------------------------------------|
B|---------1h3p1----------------------------|
G|----------------0-------------------------|
D|------2-----------2-----------------------|
A|-2h3--------------------------------------|
E|------------------------------------------|

   D
E|------------------------------------------|
B|-7---7-7-7--7----7--7---------------------|
G|-7---7-7-7--7----7--7---------------7\----|
D|-7---7-7-7--7h9--7--7--9---9--7--7--7\----|
A|-5---5-5-5------------10--10--7--7--9\----|
E|------------------------------------------|


Primeira Parte

   Em
E|-x-12\------------------------------------|
B|-x-12\------------------------------------|
G|-x-12\------------------------------------|
D|-x-----------0h2p0h2p...--------2---2-----|
A|-x--------------------------2-------------|
E|-x------0-----------------0---0---0-------|

               G       
E|------------------------------------------|
B|-------------3--3----3-3-3-------3---3----|
G|-------------0--2----2-0-2h4p2p0-0h2-2----|
D|-0h2-0-------0--0----0-0-0-------0---0----|
A|-------0h2-0------------------------------|
E|-------------3--3-------------------------|

   Am
E|------5-----------------------------------|
B|------5---5-------------------------------|
G|------5---5-------5-----------------------|
D|------7---7-7h9-7-5---------5h7p5h7p...---|
A|-0-------------------0--5h7---------------|
E|------------------------------------------|

   Em
E|------------------------------------------|
B|------8h10p8-----------------8------------|
G|------7-------7------------7----7---------|
D|------9----------9------9---------7-------|
A|------7---------------7--------------7----|
E|-0-----------------0----------------------|

   Bm                           Bb
E|-------7--9-7-----------------------------|
B|-------7-------10-7-----------------------|
G|----7--7-------------7-7h9p7-------7h8p7--|
D|---------------------------------8-------6|
A|------------------------------------------|
E|-7----------------------------6-----------|

   Am                C
E|----5-------------------------------------|
B|----5-------------------------------------|
G|----5---------5---------------------------|
D|----7--7h9--7-5----5----5----5----5-------|
A|-0---------------7-8--7-8--7-8--7-8-------|
E|------------------------------------------|

   G                F
E|------------------3--3-----3--------------|
B|------------------1--1-------1------------|
G|--------4h5p4-----0--0----------0---------|
D|-----5--5-----5---------------------------|
A|------------------------------------------|
E|-/3---------------------1-----------------|

   C                  D  
E|------------------------------------------|
B|---------1h3p1---------3------------------|
G|---------------0-------2------------------|
D|------2-----------2-0--0------------------|
A|-2h3--------------------------------------|
E|------------------------------------------|

             Em                   G
Well, she's walking through the clouds
       Am
With a circus mind
           Em
That's running round
 Bm                      
Butterflies and zebras 
     Bb       Am
And moonbeams
     C          G
And fairy tales
             F                   C
That's all she ever thinks about
                 D
Riding with the wind


Segunda Parte

       Em
E|----------12----12------------------------|
B|----------12h14-12------------------------|
G|-------------------14-12-12----12---------|
D|-x\----------------------12h14-12---------|
A|-x\-------------------------------12h14\--|
E|-x\--0------------------------------------|

   G
E|------------------------------------------|
B|------3/5\3/5--3/5--5\3----3--------------|
G|------2/4\2/4--2/4--4\2----2--------------|
D|------0--------0-----------0--------------|
A|------------------------------------------|
E|-3---------------------------3/-----------|

   Am
E|------------------------------------------|
B|------5-5---------------------------------|
G|------5---5-------------------------------|
D|------7-----7-----------------------------|
A|-0------------------5--7--5---------------|
E|--------------5--8-----------5--7\--------|

   Em
E|------------------------------------------|
B|------8h10p8------------------------------|
G|------7------7----------------------------|
D|------9---------9-----------9--7-7h9-9----|
A|------7-----------7----7------------------|
E|-0----------------------------------------|

   Bm                    Bb
E|-------9--10-9--7-------------------------|
B|-------7----------7---------6-------------|
G|----7-----------------------7-------------|
D|----------------------------8-------------|
A|--------------------------8---------------|
E|-7-------------------0-6------------------|

   Am
E|-5----------------------------------------|
B|-5h7p5------5---5--x----------------------|
G|--------7---5---5--x------5---------------|
D|----------7---7-5--x-5----5---5----5\-----|
A|-------------------x-5h7----8-7--8-7\-----|
E|------------------------------------------|

   G                      F
E|-------------5/7--5\3---3---3-------------|
B|-------------3/5--3\1---1---1-------------|
G|----4p2p0---------------0---0-------------|
D|-------------5/7--5\3---3---3-------------|
A|------------------------------------------|
E|-3-------------------------------1-1h3/5--|

   C                     D
E|------------------------------------------|
B|------5----5---5-5---5-5/7----------------|
G|------5----5---5-5---5-5/7----------------|
D|------5----5---5-5---5-5/7----------------|
A|-3---------3---3-3---3-3/5----------------|
E|------------------------------------------|

E|------------------------------------------|
B|-7----7---7-7---7-7----7----7---7-7---7--x|
G|-7----7---7-7---7-7----7----7---7-7---7--x|
D|-7----7---7-7---7-7----7----7---7-7---7--x|
A|-5----5---5-5---5-5----5----5---5-5---5--x|
E|------------------------------------------|

   H.N
E|-12---------------------------------------|
B|-12---------------------------------------|
G|-12---------------------------------------|
D|------------------------------------------|
A|------------------------------------------|
E|------------------------------------------|

          Em                G
When I'm sad, she comes to me
         Am
With a thousand smiles
              Em     Bm
She gives to me free

It's alright, she said
Bb      Am
It's alright
 C                 G           F
Take anything you want from me
         C  D
Anything,   anything


[Solo] Em  G  Am  Em
       Bm  Bb  Am  C
       G  F  C  D

E|-----------------------------------------------------|
B|-15b17~---15b17--b17r15--12--12-15-12~---15b17r15----|
G|--------------------------------------------------12~|
D|-----------------------------------------------------|
A|-----------------------------------------------------|
E|-----------------------------------------------------|

E|-----------------------------------------------------|
B|--------15-------------------------------------------|
G|-14b16------14b16-14~---14b16-14-12-14b16r14b16r14b--|
D|-----------------------------------------------------|
A|-----------------------------------------------------|
E|-----------------------------------------------------|

E|-----------------------------------------------------|
B|-----------------------------------------------------|
G|-b16r14--12----------12-14b16--12-14----12-14-12-14b-|
D|------------14~---14-----------------14--------------|
A|-----------------------------------------------------|
E|-----------------------------------------------------|

E|-----------------------------------------------------|
B|-----------------------------------------------------|
G|-12-14~---/16~---\12~---14b16r-----------------------|
D|-----------------------------------------------------|
A|-----------------------------------------------------|
E|-----------------------------------------------------|

E|-----------------------------------------------------|
B|-12h13--12-13p12--13p12------15b17~---b17r15--12-----|
G|-------------------------12--------------------------|
D|-----------------------------------------------------|
A|-----------------------------------------------------|
E|-----------------------------------------------------|

E|---------15-15---------15--------13------------------|
B|------------------------------------13-13-------13---|
G|-14b16---------14b16------b16r14-------12b14~--b14r12|
D|-----------------------------------------------------|
A|-----------------------------------------------------|
E|-----------------------------------------------------|

E|-----------------------------------------------------|
B|-----------------------------------------------------|
G|----------12-----------------------------------------|
D|-12h14~---12h14p12--10--10/12~-----------------------|
A|-----------------------------------------------------|
E|-----------------------------------------------------|

E|-----------------------------------------------------|
B|-----------------------------------------------------|
G|-14-----14-----14------------------------------------|
D|-14h16--14h16--14h16p14\12--14~----------------------|
A|-----------------------------------------------------|
E|-----------------------------------------------------|
00:00 / 00:00
Outros vídeos desta música
Repetir
Outros vídeos desta música
Composição de Jimi Hendrix
Colaboração e revisão:
  • Vinícius Dias
1.878 exibições
    • ½ Tom
    • Am
    • Bbm
    • Bm
    • Cm
    • C#m
    • Dm
    • Ebm
    • Em
    • Fm
    • F#m
    • Gm
    • G#m
  • Adicionar à lista

    0 comentários

    Ver todos os comentários

    Conseguiu tocar?

    0 Tocaram 0 Ainda não

    Grave um vídeo tocando Little Wing e nos envie!

    Entre para oCifra Club PRO

    Tenha acesso a benefícios exclusivos no App e no Site

    • Chega de anúncios

    • Prioridade de compra em lançamentos

    • Mais recursos no app do Afinador

    • Atendimento Prioritário

    • Descontos nos produtos Cifra Club

    • Ajude a produzir mais conteúdo

    00:00 / 00:00
    Capítulos
    • Tocando a Música
    • Ensinando Introdução
    • Ensinando Primeira Estrofe
    • Ensinando Segunda Estrofe
    • Ensinando Solo
    • Encerramento

    Cifra Club Pro

    Aproveite o Cifra Club com benefícios exclusivos e sem anúncios
    Cifra Club Pro
    Aproveite o Cifra Club com benefícios exclusivos e sem anúncios
    OK