Cifra Club

Purple Haze

Jimi Hendrix

Tab de baixo: Principal
exibições 21.897
  intro
G|---------------------------------------------------------------------------------|
D|---------------------------------------------------------------------------------|
A|--7---7---7---7---7-7-7---7-7-7---7-7-7---7-7-7---7-7-7---7-7-7---7-7-7---7-7-7--|
E|0---0---0---0---0----0-00----0-00----0-00----0-00----0-00----0-00----0-00----0-0-|

  verse riff          chorus "excuse me while I kiss.."
G|-------------------|---------------|
D|-------------------|--------5\--5\-|
A|7-7-07775-------457|7h975--5---5---|
E|---------333-055---|------7---7----|

  solo/outro "help me  help me"
G|---------------------------------------------------------------------------------------------
D|---------------------------------------------------------------------------------------------
A|------------------------555-555---7-7-7-(7)/999-\555---7-7-7-/999-\555---7-7-7-/999-\555---7-
E|3h555-3h555-5h777-5h777---------0----0-0-------------0----0-0----------0----0-0----------0---

   
-------------------------------|
-------------------------------|
7-7-/999-\555---7-7-7-/999-\555|
-0-0----------0----0-0---------|

  return after solo
G|------------------------------------------------------------------|
D|------------------------------------------------------------------|
A|---7-7-7---7-7-7---7-7-7---7-7-7---7-7-7---7-7-7---7-7-7---7-7-7--|
E|-0----0-00----0-00----0-00----0-00----0-00----0-00----0-00----0-0-|


_______________________________________________________
Contribuição: Vitor Marin Wiira(dna.dna@bol.com.br)
Composição: Jimi Hendrix

0 comentários

    mostrar mais comentários

    Conseguiu tocar?

    5tocaram1ainda não

    Grave um vídeo tocando Purple Haze e mande pra gente!

    00:00 / 00:00
    outros vídeos desta música
    repetirqualidadeautomática
    Outro vídeos desta música
      00:00 / 00:00
      automática
      OK