Cifra Club

Bleed American

Jimmy Eat World

Cifra: Principal (violão e guitarra)
tom: B
Intro(2x)-Verso:

   F#    D   B
e|-----------------
B|-----------------
G|-------7---4-----
D|-4-----7---4-----
A|-4-----5---2-----
E|-2---------------

Refrão:

 F#   D  B     F#    A
-------------|------------
-------------|------------
------7--4---|------------
-4----7--4---|-4-----7---- 2x
-4----5--2---|-4-----7----
-2-----------|-2-----5----   

Solo:

 F#  D   A   D   B
---------------------
---------------------
-----7-------7---4---
-4---7---7---7---4--- 2x
-4---5---7---5---2---
-2-------5-----------

final:

 F#  D   A   D   B
---------------------
---------------------
-----7-------7---4---
-4---7---7---7---4--- 2x
-4---5---7---5---2---
-2-------5-----------
Composição de Jimmy Eat World
Colaboração e revisão:
  • Luis
3.699 exibições
    • ½ Tom
    • A
    • Bb
    • B
    • C
    • Db
    • D
    • Eb
    • E
    • F
    • F#
    • G
    • Ab
  • Adicionar à lista

    0 comentários

    Ver todos os comentários
    00:00 / 00:00
    Outros vídeos desta música
    Repetir Qualidade Automático
    Outros vídeos desta música
    00:00 / 00:00
    Automático

    Cifra Club Pro

    Aproveite o Cifra Club com benefícios exclusivos e sem anúncios
    Cifra Club Pro
    Aproveite o Cifra Club com benefícios exclusivos e sem anúncios
    OK