Cifra Club

Shame

Jimmy Eat World

Cifra: Principal (violão e guitarra)
tom: F
F         C         Bb
Is it dark yet outside? 
F          C          Bb
I'm through hiding tonight 
F5                              D5
Take from the rest, your debt erased 
                                Bb5
Sleep with my curse and feel no shame 
F5      C5
No shame 


E||-----------------------------------------------------|
B||-----------------------------------------------------|
G||-----------------------------------------------------|
D||-----------10----------------8-------------8---------|
A||--12--12-8----10---8-8-10/12--8--8-8-10/12--8-8b10---|
E||-----------------------------------------------------|

E||---------------------------------------------------------||
B||---------13------------------11--------------------------||
G||--14--10----12---10-10-12/14----10/12---/11--10---8--6-6-||
D||---------------------------------------------------------||
A||----------------------------------------/13--12--10--8-8-||
E||---------------------------------------------------------||


C           C              Bb
It might take you all night 
F           C              Bb
But you'll love me with time 
F5                                 D5
Take from the rest, your debt erased 
                                   Bb5                                  
Sleep with my curse and feel no shame 
F5     C5
No shame 


  
E||-----------------------------------------------------|
B||-----------------------------------------------------|
G||------10----9b10-9----9-------10----9b10----9--------|
D||--8-9----10--------10---12-12----10------10----------|
A||-----------------------------------------------------| 3X
E||-----------------------------------------------------|

E||---------------------------------------------------------||
B||---------------------------------------------------------||
G||------10----9b10-9----9-------10----9b10----9-9-9B10-10~-||
D||--8-9----10--------10---12-12----10------10--------------||
A||---------------------------------------------------------||
E||---------------------------------------------------------||

F        C         Bb
Is it dark yet outside? 
F          C          Bb
I'm through hiding tonight 
F5                              D5
Take from the rest, your debt erased 
                                Bb5
Sleep with my curse and feel no shame 
F5      C5
No shame 
 
FINAL:
F C F C F C ...

ps. esculte bem a musica pra pegar o tempo q ele alterna o F pro C...
O solo foi improvisado no violão mas ficou meio parecido ate ^^
qualquer correção ou ajuda é so postar ou mandar mensagem privada...
abraço a todos
00:00 / 00:00
Outros vídeos desta música
Repetir
Outros vídeos desta música
Compositor não encontrado.
Colaboração e revisão:
  • Rodolfo Vitorino
690 exibições
    • ½ Tom
    • A
    • Bb
    • B
    • C
    • Db
    • D
    • Eb
    • E
    • F
    • F#
    • G
    • Ab
  • Adicionar à lista

    0 comentários

    Ver todos os comentários
    00:00 / 00:00

    Cifra Club Pro

    Aproveite o Cifra Club com benefícios exclusivos e sem anúncios
    Cifra Club Pro
    Aproveite o Cifra Club com benefícios exclusivos e sem anúncios
    OK