Cifra Club

The Middle

Jimmy Eat World

Cifra: Principal (violão e guitarra)
tom: D
(intro)

E|----------------------------------------------------------------------------------|
B|----------------------------------------------------------------------------------|
G|----------------------------------------------------------------------------------|
D|-4-4-0-0-0-0-0-4-4-4-4-4-2-2------------------------------------------------------|
A|-----------------------------4-4-4-4-4-4-4-4-4-5-5-5-5-5-5-4-4-4-4-4-4-5-5-5-5-5-5|
D|----------------------------------------------------------------------------------|

D
Hey
                        A
Don't write yourself off yet
                               G                         D
It's only in your head you feel left out or looked down on

Just try your best
                    A
Try everything you can
                               G                          D
and don't you worry what they tell themselves when you're away

(refrão)
         D
It just takes some time
                               A
Little girl, you're in the middle of the ride
                          G
Everything everything will be just fine
                         D
Everything everything will be all right (all right)

D                            A
Hey you know they're all the same
                        G                               D
You know you're doing better on your own so don't buy in

Live right now
             A
Just be yourself
                  G                                  D
It doesn't matter if that's good enough for someone else

(refrão)
         D
It just takes some time
                               A
Little girl, you're in the middle of the ride
                          G
Everything everything will be just fine
                         D
Everything everything will be all right (all right)

(solo)

D
Hey
                        A
Don't write yourself off yet
                               G                             D
It's only in your head you feel left out or looked down on

Do your best
                   A
Do everything you can
                       G                                D
Don't you worry what thier bitter hearts are going to say

(refrão 2x)

(refrão)

          D
It just takes some time
                               A
Little girl, you're in the middle of the ride
                          G
Everything everything will be just fine
                         D
Everything everything will be all right (all right)

(solo)

E|------------------------------------------------------------------------------------
B|-2h3p2-0------------------------------------------2h3p2-0---------------------------
G|------------------------------------------------------------------------------------
D|---------0h2p0--------------------------------------------0h2p0---------------------
A|---------------4-5/7-5-4-5-4-5/7-5-4-5-4-5-5-4------------------4-5/7-5-4-5-4-5(6x)-
D|------------------------------------------------0-----------------------------------

E|------------------------------------------------------------------------------------
B|------------------------------------------------------------------------------------
G|------------------------------------------------------------------------------------
D|-------------------------------------------------------------12--12-12/14--14-14/16-
A|-7(6x)-9(5x)-10--10-9-10-10/12-10-9-10--9-10-10/12-10-9-10-9------------------------
D|------------------------------------------------------------------------------------

E|-------------------------------------------------------------|
B|----------------15(6x)-14(6x)-12(6x)-------------------------|
G|-------------------------------------14(6x)-12--11--9--7-6-4-|
D|-16-16/17-16-17----------------------------------------------|
A|-------------------------------------------------------------|
D|-------------------------------------------------------------|
Composição de Jimmy Eat World
Colaboração e revisão:
  • Luisa Peixoto
36.307 exibições
    • ½ Tom
    • A
    • Bb
    • B
    • C
    • Db
    • D
    • Eb
    • E
    • F
    • F#
    • G
    • Ab
  • Adicionar à lista

    0 comentários

    Ver todos os comentários
    00:00 / 00:00
    Outros vídeos desta música
    Repetir Qualidade Automático
    Outros vídeos desta música
    00:00 / 00:00
    Automático

    Cifra Club Pro

    Aproveite o Cifra Club com benefícios exclusivos e sem anúncios
    Cifra Club Pro
    Aproveite o Cifra Club com benefícios exclusivos e sem anúncios
    OK