Cifra Club

Enemigo de la sociedad

JLS

Cifra: Principal (violão e guitarra)
tom: E
(E B G D A E)

E|---------|-------------------|-------------------|-------------------|
B|---------|-------------------|-------------------|-------------------|
G|---------|-------------------|-------------------|-------------------|
D|---------|-------------------|-------------------|-------------7---7-|
A|-3-3-3-3-|---2-1-----3-3-3-3-|---2-1-----3-3-3-3-|---6-5-------------|
E|-1-1-1-1-|-0-----3-2-1-1-1-1-|-0-----3-2-1-1-1-1-|-0-----7-6-5---5---|


                                       F5
               PM  PM
  Q  Q  Q  E E S S S S   Q  Q  Q   E E  S  S  S  S
E|----------------------|---------------------------| |--|
B|----------------------|---------------------------| |o-|
G|----------------------|---------------------------| |--|
D|----------------7---7-|----9--8-------10-10-10-10-| |--|
A|----6--5--------------|-7--------10-9--8--8--8--8-| |o-|
E|-0--------7-6-5---5---|----------------8--8--8--8-| |--|


  E5              D#               E5

E|---------------|----------------|------------------|
B|---------------|----------------|------------------|
G|-9-------(9)-9-|-8----(8)-8-8-8-|-9-------(9)-9----|
D|-9-------(9)-9-|-8----(8)-8-8-8-|-9-------(9)-9----|
A|-7-------(7)-7-|-6----(6)-6-6-6-|-7-------(7)-7----|
E|-7-------(7)-7-|-6----(6)-6-6-6-|-7-------(7)-7----|

E|-----------------| |-|-------------------|-------------------|--------|
B|----------------o| |-|-------------------|-------------------|--------|
G|-8----(8)-8-8-8--| |-|-------------------|-------------------|--------|
D|-8----(8)-8-8-8--| |-|-------------------|-------------7---7-|---9-8--|
A|-6----(6)-6-6-6-o| |-|---2-1-----3-3-3-3-|---6-5-------------|-7------|
E|-6----(6)-6-6-6--| |-|-0-----3-2-1-1-1-1-|-0-----7-6-5---5---|--------|

E|------------------|---------------|
B|------------------|---------------|
G|------------------|-9-------(9)-9-|
D|------10-10-10-10-|-9-------(9)-9-|
A|-10-9--8--8--8--8-|-7-------(7)-7-|
E|------------------|-7-------(7)-7-|

E|----------------|---------------|------------------|
B|----------------|---------------|------------------|
G|-8----(8)-8-8-8-|-9-------(9)-9-|-8----(8)-8-8-8---|
D|-8----(8)-8-8-8-|-9-------(9)-9-|-8----(8)-8-8-8---|
A|-6----(6)-6-6-6-|-7-------(7)-7-|-6----(6)-6-6-6---|
E|-6----(6)-6-6-6-|-7-------(7)-7-|-6----(6)-6-6-6---|

E|----------------------|----------------------|
B|----------------------|----------------------|
G|----------------------|----------------------|
D|----------------------|----------------------|
A|----2--1------3-3-3-3-|----2--1------3-3-3-3-|
E|-0--------3-2-1-1-1-1-|-0--------3-2-1-1-1-1-|

E|----------------------|----------------------|-------|
B|----------------------|----------------------|-------|
G|----------------------|----------------------|-------|
D|----------------------|----------------------|--2----|
A|----2--1------3-3-3-3-|----2--1------3-3-3-3-|--2----|
E|-0--------3-2-1-1-1-1-|-0--------3-2-1-1-1-1-|--0----|



||----------------|----------------|--------------|
||o---------------|----------------|--------------|
||----------------|----------------|--------------|
||----------------|----------------|--------------|
||o---2--3-2--2-|---2--2-----1-0-|-2--2--3-2--2-|
||----0--1-0--0-|---0--0-1-0-----|-0--0--1-0--0-|


E|-------------------| |-||-------------------|-|
B|------------------o| |-||o------------------|-|
G|-------------------| |-||-------------------|-|
D|-------------------| |-||-------------------|-|
A|---2-2---------/5-o| |-||o-2-2-2-2-2-2-2-3--|-|
E|---0-0-0-0-0-0--3--| |-||--0-0-0-0-0-0-0-1--|-|

E|--------------------| |-||---------------|
B|-------------------o| |-||o--------------|
G|--------------------| |-||---------------|
D|--------------------| |-||---------------|
A|-2-2-2--/5-----/5--o| |-||o-2--2--3-2--2-|
E|-0-0-0--/3--0--/3---| |-||--0--0--1-0--0-|

E|----------------|--------------|----------------------| |
B|----------------|--------------|---------------------o| |
G|----------------|--------------|----------------------| |
D|----------------|--------------|----------------------| |
A|---2--2-----1-0-|-2--2--3-2--2-|---2--2---------/5---o| |
E|---0--0-1-0-----|-0--0--1-0--0-|---0--0-0-0-0-0--3----| |

E|-----------------------|-----------------------|
B|-----------------------|-----------------------|
G|-----------------------|-----------------------|
D|-----------------------|-----------------------|
A|----2--1-------3-3-3-3-|----2--1-------3-3-3-3-|
E|-0--------3-2--1-1-1-1-|-0--------3-2--1-1-1-1-|

E|-----------------------|-------------------------|
B|-----------------------|-------------------------|
G|-----------------------|-------------------------|
D|-----------------------|-------------------------|
A|----2--1-------3-3-3-3-|----2--1-------3-3-3-3---|
E|-0--------3-2--1-1-1-1-|-0--------3-2--1-1-1-1---|


||----------------|----------------|---------------|-----------------||
||o---------------|----------------|---------------|----------------o||
||--9-------(9)-9-|-8----(8)-8-8-8-|-9-------(9)-9-|-8----(8)-8-8-8--||
||--9-------(9)-9-|-8----(8)-8-8-8-|-9-------(9)-9-|-8----(8)-8-8-8--||
||o-7-------(7)-7-|-6----(6)-6-6-6-|-7-------(7)-7-|-6----(6)-6-6-6-o||
||--7-------(7)-7-|-6----(6)-6-6-6-|-7-------(7)-7-|-6----(6)-6-6-6--||


E|------------------------|-------------------------|---------------------------|
B|------------------------|-------------------------|---------------------------|
G|------------------------|-------------------------|---------------------------|
D|------------------------|-------------------------|-------------------7-----7-|
A|----2--1--------3-3-3-3-|----2--1---------3-3-3-3-|----6--5-------------------|
E|-0--------3--2--1-1-1-1-|-0--------3--2---1-1-1-1-|-0--------7--6--5-----5----|

E|------------------------------|-| |------------------|
B|------------------------------|-| |------------------|
G|------------------------------|-| |------------------|
D|---------------------7-----7--|-| |------------------|
A|-----6--5---------------------|-| |------2---1-------|
E|--0---------7--6--5-----5-----|-| |---0---------3--2-|

E|--------------|--------------|------------|------| |----|
B|--------------|--------------|------------|------| |----|
G|--------------|--------------|------------|------| |----|
D|--------------|--------------|------------|------| |----|
A|-3-3-3-3-2----|-3-3-3-3-2----|-3-3-3-3-2--|-(2)--| |----|
E|-1-1-1-1-0----|-1-1-1-1-0----|-1-1-1-1-0--|-(0)--| |----|
00:00 / 00:00
Outros vídeos desta música
Repetir
Outros vídeos desta música
Composição de Leo susana
2 exibições
    • ½ Tom
    • A
    • Bb
    • B
    • C
    • Db
    • D
    • Eb
    • E
    • F
    • F#
    • G
    • Ab
  • Adicionar à lista

    0 comentários

    Ver todos os comentários

    Conseguiu tocar?

    0 Tocaram 0 Ainda não

    Grave um vídeo tocando Enemigo de la sociedad e nos envie!

    Entre para oCifra Club PRO

    Tenha acesso a benefícios exclusivos no App e no Site

    • Chega de anúncios

    • Prioridade de compra em lançamentos

    • Mais recursos no app do Afinador

    • Atendimento Prioritário

    • Descontos nos produtos Cifra Club

    • Ajude a produzir mais conteúdo

    00:00 / 00:00

    Cifra Club Pro

    Aproveite o Cifra Club com benefícios exclusivos e sem anúncios
    Cifra Club Pro
    Aproveite o Cifra Club com benefícios exclusivos e sem anúncios
    OK