Enviar cifraEntrar

I Love Rock N' Roll

Joan Jett & the Blackhearts

Cifra: Principal
exibições 315.270
Tom: E
Introdução: 
E5  A5  B5 (2x)
E5  (Riff 1)


Riff 1:

(Guitarra 1)

E|---------------------------------------------------
B|-15b17r15-12---------------------------------------
G|--------------14-12~-------------------------------
D|---------------------------------------------------
A|---------------------------------------------------
E|---------------------------------------------------


(Guitarra 2)

E|---------------------------------------------------
B|---------------------------------------------------
G|---------------------------------------------------
D|---------------------------------------------------
A|-5b7r5---------------------------------------------
E|-------7--5-3~-------------------------------------



Primeira Parte:
   E5                                          (Riff 1)
I saw him dancin' there by the record machine
    E5                            B5   (Riff 1)
I knew he must a been about seventeen
     A5               B5
The beat was goin' strong
  E5                 A5
Playin' my favorite song

An' I could tell it wouldn't be long

Till he was with me, yeah me

And I could tell it wouldn't be long
                  B5
Till he was with me, yeah me, singin'

Refrão:
E5
I love rock N' roll
    A5                      B5
So put another dime in the jukebox, baby
E5
I love rock N' roll
    A5                          B5         E5
So come and take your time and dance with me

( E5 ) (Riff 1)

Segunda Parte:
     E5                                      (Riff 1)
He smiled so I got up and asked for his name
  E5
That don't matter he said
                     B5  (Riff 1)
'Cause it's all the same
 A5                  B5         E5         A5
Said can I take you home where we can be alone

An' next we were movin' on

He was with me, yeah me

Next we were movin' on
             B5
He was with me, yeah me, singin'

Refrão:
E5
I love rock N' roll
    A5                      B5
So put another dime in the jukebox, baby
E5
I love rock N' roll
    A5                          B5         E5
So come and take your time and dance with me

( E5 ) (Riff 1)

Solo: E5  (Riff 1)
      E5  B5 (Riff 1)

(Parte 1)

E|---------------------------------------------------
B|---------------------------------------------------
G|---------------------------------------------------
D|--------------------------b12r11b12~~--------------
A|2------0------------------b11r10b11~~--------------
E|0---x--0--2b3--2b3r2--0----------------------------


(Parte 2)

E|------------------12---------12--------------------
B|--------------------------------12-----------------
G|-----9--11-11b13------11b13-----11b13r11p9----9h11~
D|-/11---------------------------------------11------
A|---------------------------------------------------
E|---------------------------------------------------


   P.M.

E|---------------------------------------------------
B|---------------12----------------------------------
G|------------9--------------------------------------
D|-9--9--9h11----------------------------------------
A|---------------------------------------------------
E|---------------------------------------------------


(Parte 3 - Entrada da Terceira Parte)

E|---------------------------------------------------
B|---------------------------------------------------
G|-9-9-9\8--8-8-8\6--6-6-6\4--4-4-4\2--2-2-2\1--1-1-1
D|---------------------------------------------------
A|---------------------------------------------------
E|---------------------------------------------------


E|---------------------------------------------------
B|---------------------------------------------------
G|---------------------------------------------------
D|-4-2---2-------------------------------------------
A|-----4-0-------------------------------------------
E|---------------------------------------------------



Terceira Parte:
 A5                  B5         E5         A5
Said can I take you home where we can be alone

Next we were movin' on

He was with me, yeah me,

An we'll be movin' on

An' singin' that same old song

Yeah with me, singin'

Refrão:

I love rock n' roll

So put another dime in the jukebox, baby

I love rock n' roll

So come an' take your time an' dance with me

E5
I love rock N' roll
    A5                      B5
So put another dime in the jukebox, baby
E5
I love rock N' roll
    A5                          B5
So come and take your time and dance with

E5
I love rock N' roll
    A5                      B5
So put another dime in the jukebox, baby
E5
I love rock N' roll
    A5                          B5
So come and take your time and dance with

Riff 2:

E|---------------------------------------------------
B|---------------------------------------------------
G|---------------------------------------------------
D|---------------------------------------------------
A|-/7-7-7-7-7-7-7-7-7-7-7-7-7-7-7-7-7-7-7-7-7-7-7-7-7
E|---------------------------------------------------



E5
I love rock N' roll
    A5                      B5
So put another dime in the jukebox, baby
E5
I love rock N' roll
    A5                          B5
So come and take your time and dance with

E5
I love rock N' roll
    A5                      B5
So put another dime in the jukebox, baby
E5
I love rock N' roll
    A5                          B5         E5
So come and take your time and dance with me
  • 1
  • 2
  • 3
  • 4
  • 5
  • 6
  • 7
  • 8
  • 9
  • 10
  • 11
  • 12
    Acordes para:

      0 comentários

        mostrar mais comentários

        Conseguiu tocar?

        101tocaram0ainda não

        Grave um vídeo tocando I Love Rock N' Roll e mande pra gente!

        00:00 / 00:00
        outros vídeos desta música
        repetirqualidadeautomática
        • automática
        Outro vídeos desta música
          Capítulos
          • Início
          • Tocando a música
          • Configuração do Efeito
          • Acordes da Introdução
          • Tocando Introdução
          • Ensinando Introdução (Ritmo Principal) - Guitarra
          • Ensinando Introdução (Ritmo Principal) - Guitarra
          • Ensinando Riff 1 - Guitarra 1
          • Ensinando Riff 1 - Guitarra 2
          • Tocando Primeira Parte
          • Ensinando Primeira Parte
          • Tocando Refrão
          • Ensinando Refrão
          • Tocando Solo
          • Ensinando Solo
          • Tocando Final
          • Ensinando Riff 2
          • Encerramento
          00:00 / 00:00
          automática
          • automática
          Acordes para:violão e guitarra
          dificuldadeexibiçõescontribuições
          1 versão de Tab de baixoexibiçõescontribuições
          1 versão de Guitar Proformatodownloadscontribuição
          fecharplay/pause subir/descer velocidade
            acordes
            fechar
            OK
            Feedback