Notificações Amigos pendentes

      Joan Jett & the Blackhearts

      I Love Rock N' Roll

      311.091 exibições
      Tom: E
      Introdução: 
      E5  A5  B5 (2x)
      E5  (Riff 1)
      
      
      Riff 1:
      
      (Guitarra 1)
      
      E|---------------------------------------------------
      B|-15b17r15-12---------------------------------------
      G|--------------14-12~-------------------------------
      D|---------------------------------------------------
      A|---------------------------------------------------
      E|---------------------------------------------------
      
      
      (Guitarra 2)
      
      E|---------------------------------------------------
      B|---------------------------------------------------
      G|---------------------------------------------------
      D|---------------------------------------------------
      A|-5b7r5---------------------------------------------
      E|-------7--5-3~-------------------------------------
      
      
      
      Primeira Parte:
         E5                                          (Riff 1)
      I saw him dancin' there by the record machine
          E5                            B5   (Riff 1)
      I knew he must a been about seventeen
           A5               B5
      The beat was goin' strong
        E5                 A5
      Playin' my favorite song
      
      An' I could tell it wouldn't be long
      
      Till he was with me, yeah me
      
      And I could tell it wouldn't be long
                        B5
      Till he was with me, yeah me, singin'
      
      Refrão:
      E5
      I love rock N' roll
          A5                      B5
      So put another dime in the jukebox, baby
      E5
      I love rock N' roll
          A5                          B5         E5
      So come and take your time and dance with me
      
      ( E5 ) (Riff 1)
      
      Segunda Parte:
           E5                                      (Riff 1)
      He smiled so I got up and asked for his name
        E5
      That don't matter he said
                           B5  (Riff 1)
      'Cause it's all the same
       A5                  B5         E5         A5
      Said can I take you home where we can be alone
      
      An' next we were movin' on
      
      He was with me, yeah me
      
      Next we were movin' on
                   B5
      He was with me, yeah me, singin'
      
      Refrão:
      E5
      I love rock N' roll
          A5                      B5
      So put another dime in the jukebox, baby
      E5
      I love rock N' roll
          A5                          B5         E5
      So come and take your time and dance with me
      
      ( E5 ) (Riff 1)
      
      Solo: E5  (Riff 1)
            E5  B5 (Riff 1)
      
      (Parte 1)
      
      E|---------------------------------------------------
      B|---------------------------------------------------
      G|---------------------------------------------------
      D|--------------------------b12r11b12~~--------------
      A|2------0------------------b11r10b11~~--------------
      E|0---x--0--2b3--2b3r2--0----------------------------
      
      
      (Parte 2)
      
      E|------------------12---------12--------------------
      B|--------------------------------12-----------------
      G|-----9--11-11b13------11b13-----11b13r11p9----9h11~
      D|-/11---------------------------------------11------
      A|---------------------------------------------------
      E|---------------------------------------------------
      
      
         P.M.
      
      E|---------------------------------------------------
      B|---------------12----------------------------------
      G|------------9--------------------------------------
      D|-9--9--9h11----------------------------------------
      A|---------------------------------------------------
      E|---------------------------------------------------
      
      
      (Parte 3 - Entrada da Terceira Parte)
      
      E|---------------------------------------------------
      B|---------------------------------------------------
      G|-9-9-9\8--8-8-8\6--6-6-6\4--4-4-4\2--2-2-2\1--1-1-1
      D|---------------------------------------------------
      A|---------------------------------------------------
      E|---------------------------------------------------
      
      
      E|---------------------------------------------------
      B|---------------------------------------------------
      G|---------------------------------------------------
      D|-4-2---2-------------------------------------------
      A|-----4-0-------------------------------------------
      E|---------------------------------------------------
      
      
      
      Terceira Parte:
       A5                  B5         E5         A5
      Said can I take you home where we can be alone
      
      Next we were movin' on
      
      He was with me, yeah me,
      
      An we'll be movin' on
      
      An' singin' that same old song
      
      Yeah with me, singin'
      
      Refrão:
      
      I love rock n' roll
      
      So put another dime in the jukebox, baby
      
      I love rock n' roll
      
      So come an' take your time an' dance with me
      
      E5
      I love rock N' roll
          A5                      B5
      So put another dime in the jukebox, baby
      E5
      I love rock N' roll
          A5                          B5
      So come and take your time and dance with
      
      E5
      I love rock N' roll
          A5                      B5
      So put another dime in the jukebox, baby
      E5
      I love rock N' roll
          A5                          B5
      So come and take your time and dance with
      
      Riff 2:
      
      E|---------------------------------------------------
      B|---------------------------------------------------
      G|---------------------------------------------------
      D|---------------------------------------------------
      A|-/7-7-7-7-7-7-7-7-7-7-7-7-7-7-7-7-7-7-7-7-7-7-7-7-7
      E|---------------------------------------------------
      
      
      
      E5
      I love rock N' roll
          A5                      B5
      So put another dime in the jukebox, baby
      E5
      I love rock N' roll
          A5                          B5
      So come and take your time and dance with
      
      E5
      I love rock N' roll
          A5                      B5
      So put another dime in the jukebox, baby
      E5
      I love rock N' roll
          A5                          B5         E5
      So come and take your time and dance with me
        Composição: Joan Jett And The BlackheartsColaboração e revisão:
        • v.inny
        • danielb6000
        • Juninho
        • Jhenny
        • +4

        Comentários 57

        140 .
        • diego_0cesar diego_0cesar: Em 28/10/2013 10:07

          Otima video-aula aprendi "facinn "

        • faell10 faell10: Em 04/10/2013 10:27

          Nem precisei da video aula, facil

        • vinicius.turibueno.7 vinicius.turibueno.7: Em 20/08/2013 22:41

          Muito bem explicado , estou começando agora e consegui tocar tudo.
          Muito bom!!!

        • victor.ronne.5 victor.ronne.5: Em 12/05/2013 11:41

          o riff 1 ficou muito legal no meu violão

        • Raynier Raynier: Em 08/02/2013 16:46

          aprendi rápido a tocar e tenho nenhuma reclamação

        • vitorcapslock vitorcapslock: Em 25/01/2013 20:28

          muito facil e boa de tocar

        • pedroveiga pedroveiga: Em 24/01/2013 15:31

          Todas as aulas deviam ser assim ensinando as duas guitarras da musica.

        • gubaptista gubaptista: Em 13/12/2012 10:40

          qual o nome dessa guitarra?

        • gabriel_levi gabriel_levi: Em 08/12/2012 14:42

          please faz uma video aula da vicinity of obscenity do System of a Down

          • mzk mzk: Em 08/06/2013 17:50

            isso aeeew!

        140 cancelar

        conseguiu tocar?

        • •••

        covers

        Grave um vídeo tocando I Love Rock N' Roll e mande pra gente!

        Ex.: http://www.youtube.com/watch?v=0IvSvIwGdwk
        ver covers de outras músicas »
        0:00 / 0:00
        1 versão de baixo exibições contribuição e correção
        1 versão de Guitar Proformatodownloadscontribuição
        play/pausefechar subir/descer velocidade
        6ª corda E5ª corda A4ª corda D3ª corda G2ª corda B1ª corda E
          acordes
          transcrição verificada v.inny instrutor de guitarra
          publicidade
          fechar
          ok