Cifra Club

Aprenda

I Love Rock And Roll

Joan Jett

Cifra: Principal (violão e guitarra)
tom: E
(intro)

|e|----------------------------------|
|B|----------------------------------|
|G|---------------2-2----------------| (2x)
|D|-2-2---2-2-----2-2--4-4-----2-2---|
|A|-2-2---2-2-----0-0--2-2-----2-2---|
|E|-0-0---0-0--3-----------3b--0-0---|

(2 guitarras fazem o solo ao mesmo tempo)

(riff 1)
|e|------------------------------------|
|B|----15b17r15--12--------------------|
|G|-------------------14p12------------| (2x)
|D|------------------------------------|
|A|------------------------------------|
|E|------------------------------------|

(riff 2)
|e|---------------------|
|B|---------------------|
|G|---------------------|
|D|---------------------|
|A|---5b-2--------------|
|E|------------5--3-----|

E5                                     E5        (riff 1 & 2)
I saw him dancin' there by the record machine
E5                               B5               (riff 1 & 2)
I knew he must a been about seventeen
A5                    B5
The beat was goin' strong
E5                   A5
Playin' my favorite song

An' I could tell it wouldn't be long

Till he was with me, yeah me

And I could tell it wouldn't be long
                     A5
Till he was with me, yeah me,

Em     Em
I love rock n' roll
  A5                           B5
So put another dime in the jukebox, baby
Em       Em
I love rock n' roll
   A5                             B5       E5     (riff)
So come an' take your time an' dance with me

E5                                      E5        (riff)
He smiled so I got up and asked for his name
E5
That don't matter, he said,
                     B5       (riff)
'Cause it's all the same
A5                   B5          E5        A5
Said can I take you home where we can be alone

An' next we were movin' on

He was with me, yeah me

Next we were movin' on

He was with me, yeah me, singin'

E5      E5
I love rock n' roll
A5                             B5
So put another dime in the jukebox, baby
E5      E5
I love rock n' roll
A5                              B5         E5        (riff)
So come an' take your time an' dance with me

(solo) E5 E5 (riff)
       E5 B5  (riff)

E|-------------------------------------|
B|-------------------------------------|
G|-------------------------------------|
D|-------------------------b12r11b12~~-|
A|-2-----0-----------------b11r10b11~~-|
E|-0--x--0--2b3--2b3r2--0--------------|

                                                        P.M. .
E|-------------------12---------12---------------------------------------|
B|---------------------------------12---------------------------------12-|
G|-----9--11--11b13------11b13-----11b13r11p9----9h11~--------------9----|
D|-/11----------------------------------------11---------9--9--9h11------|
A|----------------------------------------------------------------------|
E|-----------------------------------------------------------------------|

E|------------------------------------------------------------|
B|-9-9-9/8--8-8-8/6--6-6-6/4--4-4-4/2--2-2-2/1--1-1-1---------|
G|------------------------------------------------------------|
D|----------------------------------------------------4-2---2-|
A|--------------------------------------------------------4-0-|
E|------------------------------------------------------------|
A5                    B5         E5         A5
Said can I take you home where we can be alone

Next we were movin' on

He was with me, yeah me,

An we'll be movin' on

An' singin' that same old song

Yeah with me, singin'

(segue só vocal)

I love rock n' roll
So put another dime in the jukebox, baby
I love rock n' roll
So come an' take your time an' dance with me

E5      E5
I love rock n' roll
A5                            B5
So put another dime in the jukebox, baby
E5      E5                                     (repete 4x)
I love rock n' roll
A5                            B5           E5
So come an' take your time an' dance with me
Composição de Alan Merrill / Jake Hooker
145.600 exibições
    • ½ Tom
    • A
    • Bb
    • B
    • C
    • Db
    • D
    • Eb
    • E
    • F
    • F#
    • G
    • Ab
  • Adicionar à lista

    0 comentários

    Ver todos os comentários

    Conseguiu tocar?

    46 Tocaram 0 Ainda não

    Grave um vídeo tocando I Love Rock And Roll e nos envie!

    00:00 / 00:00
    outros vídeos desta música
    repetir qualidade Automático
    Outros vídeos desta música
    00:00 / 00:00
    Automático

    Cifra Club Pro

    Aproveite o Cifra Club com benefícios exclusivos e sem anúncios
    Cifra Club Pro
    Aproveite o Cifra Club com benefícios exclusivos e sem anúncios
    OK