Cifra Club

One Of Us

Joan Osborne

Cifra: Principal
exibições 257.451
Tom: G
Intro 8x: Em  C7M(9)  G  D5

Parte 1 de 2 - 4x:
        Em     C7M(9)   G       D5
E|-0-2-3------------------------------------|
B|-0-------0---0-1-3------------------------|
G|---------0---0-0-0---------0-0h2----------|
D|-------2---0-------0-----0---0---0--------|
A|-------------3---------2------------------|
E|-----0---------------3--------------------|
Parte 2 de 2 - 4x:
        Em     C7M(9)   G       D5
E|-0-2-3------------------------------------|
B|-0-0-0---0---0-1-3------------------------|
G|-----0---0---0-0-0---------0-0h2----------|
D|-----2-2---0-0-----0-----0---0---0--------|
A|-----2-------3---------2------------------|
E|-----0---------------3--------------------|

Primeira Parte:

    Em        C
If God had a name
G                D5
  What would it be
               Em             C
And would you call it to his face
G              D5
  If you were faced with Him 
   Em        C
In all his glory
G                D5
  What would you ask if you had 
 Em       C       G  D5
Just one question
Primeira Parte:
    Em       C       G        D5
E|------------------------------------------|
B|----------------1p0-----------------------|
G|-------0------0-0-------0--0h2-2-2-0------|
D|-----2------2---------0----0---0-0-0------|
A|---2------3---------2---------------------|
E|-0----------------3-----------------------|

Pré-refrão:

 C     C9    D5
Yeah, yeah, God is great
 C     C9    D5
Yeah, yeah, God is good
 C     C9    D4         D
Yeah, yeah, yeah, yeah,   yeah
Pré-refrão

Parte 1 de 2 - 2x:
    C      C9     D5
E|-0----------------------------------------|
B|-1------3------3---3---3-3-3-3------------|
G|-0-x-0--0-x-0--2-x-2h4-4-2-2-0------------|
D|-2-x-2--2-x-2--0-x-0---0-0-0-0------------|
A|-3-x-3--3-x-3----x------------------------|
E|---x------x------x------------------------|
 Parte 2 de 2
    C      C9     D4    D
E|-0---------------3-3-2-2------------------|
B|-1------3------3-3-3-3-3-3----------------|
G|-0-x-0--0-x-0--2-2-2-2-2-2----------------|
D|-2-x-2--2-x-2--0--------------------------|
A|-3-x-3--3-x-3-----------------------------|
E|---x------x-------------------------------|

Refrão:

         Em     C7M(9)    G  D5
What if God was one of us
         Em      C7M(9)    G  D5
Just a slob like one of us
          Em    C7M(9)     G
Just a stranger on the bus
           D5
Trying to make his way
 Em  C7M(9)  G  D5
Home

Refrão:

        Em     C7M(9)   G       D5
E|-0-2-3------------------------------------|
B|-0-0-0---0---0-1-3------------------------|
G|-----0---0---0-0-0---------0-0h2----------|
D|-----2-2---0-0-----0-----0---0---0--------|
A|-----2-------3---------2------------------|
E|-----0---------------3--------------------|

Segunda Parte:

    Em        C
If God had a face
G                D5
  What would it look like
           Em          C
And would you want to see
G            D5
  If seeing meant that you would 
 Em        C
Have to believe
G                 D5
  In things like Heaven
        Em            C
And in Jesus and the saints
    G         D5
And all the prophets

Pré-refrão:
     C     C9    D5
And yeah, yeah, God is great
 C     C9    D5
Yeah, yeah, God is good
 C     C9    D4         D
Yeah, yeah, yeah, yeah,   yeah

Refrão:

         Em     C7M(9)    G  D5
What if God was one of us
         Em      C7M(9)    G  D5
Just a slob like one of us
          Em    C7M(9)     G
Just a stranger on the bus
           D5           Em  C9  G
Trying to make his way home

                D5           Em  C7M(9)
Just trying to make his way home
G             D5          Em  C9  G
  Back up to Heaven all alone
        D5              Em  C7M(9)
Nobody calling on the phone
G                D5
  'Cept for the Pope 
          
Maybe, in Rome

Refrão – Variação:

        Em      C9      G       D5
E|-0-2-3---3---3-2--------------------------|
B|-0-0-0---0---3---3------------------------|
G|-----0---0---0---0---------0-0h2----------|
D|-----2-2---0-2-----0-----0---0---0--------|
A|-----2-------3---------2------------------|
E|-----0---------------3--------------------|

Interlúdio:

( C   C9  D5 ) (2x)
( C  C9  D4  D )

Intro 4x: Em  C7M(9)  G  D5

Pré-refrão:

 C     C9    D5
Yeah, yeah, God is great
 C     C9    D5
Yeah, yeah, God is good
 C     C9    D4         D
Yeah, yeah, yeah, yeah,   yeah

Refrão Final:

         Em     C7M(9)    G  D5
What if God was one of us
         Em      C7M(9)    G  D5
Just a slob like one of us
          Em    C7M(9)     G
Just a stranger on the bus
           D5
Trying to make his way 
 Em  C9  G
Home

        D5      Em    C7M(9)  G
Like a holy Rolling Stone
            D5          Em  C9
Back up to Heaven all alone
G                 D5
  Just trying to make his way
 Em  C7M(9)  G  D5  C9
Home
                        C9
Nobody calling on the phone
                               C9
'Cept for the Pope, maybe, in Rome
Final
        C9
E|-0-2-3------------------------------------|
B|-3-3-3--0-0-1-2---------------------------|
G|-----0--0-0-0-0---------------------------|
D|-----2------------------------------------|
A|-----3------------------------------------|
E|------------------------------------------|
Acordes para:
    Composição: Eric BazilianColaboração e revisão:

    0 comentários

      mostrar mais comentários

      Conseguiu tocar?

      31tocaram0ainda não

      Grave um vídeo tocando One Of Us e mande pra gente!

      00:00 / 00:00
      outros vídeos desta música
      repetirqualidadeautomática
      Outro vídeos desta música
        00:00 / 00:00
        automática
        Capítulos
        • Tocando a música
        • Dicas Iniciais / Equipamentos
        • Acordes da Introduçao
        • Tocando a Introdução
        • Introdução - Parte 1 de 2
        • Introdução - Parte 2 de 2
        • Acordes da Primeira Parte
        • Tocando a Primeira Parte
        • Primeira Parte
        • Acordes do Pré-Refrão
        • Tocando o Pré-Refrão
        • Pré-Refrão - Parte 1 de 2
        • Pré-Refrão - Parte 2 de 2
        • Tocando o Refrão
        • Dicas 2
        • Acordes do Refrão (Variação)
        • Tocando o Refrão (Variação)
        • Refrão (Variação)
        • Tocando oRefrão - Final
        • Refrão - Final
        • Encerramento
        • Ficha Técnica
        OK