Cifra Club

Aprenda

Rude Cruz

João Alexandre

Cifra: Principal (violão e guitarra)
tom: G
E|------------0---------|-------2----0---------|--0----0----2---------|
B|--2----3---------2----|--4--------------2----|-----------------3----|
G|-----------------2----|-----------------2----|--2--------------2----|
D|----------------------|----------------------|------------0---------|
A|------------0---------|------------0---------|--4-------------------|
E|----------------------|----------------------|----------------------|

--1----4----2---------|--2----2----4---------|--2----0---------0----|
-----------------3----|-----------------3----|------------3---------|
-----------------2----|-----------------4----|------------4----1----|
------------0---------|------------2---------|----------------------|
----------------------|----------------------|----------------------|
----------------------|----------------------|------------0---------|

----------------------|-------0--------------|--2----0---------0----|
--3----2---------2----|--3---------2----4----|------------2---------|
------------2---------|------------2---------|------------2----2----|
------------2---------|----------------------|----------------------|
-------0--------------|-------0--------------|-------0---------4----|
----------------------|----------------------|----------------------|

--0----2---------1----|--4----2---------2----|--2----4---------2----|
------------3---------|------------3---------|------------3---------|
------------2---------|------------2---------|------------4---------|
-------0--------------|----------------------|----------------------|
----------------------|-------2--------------|-------0--------------|
----------------------|----------------------|----------------------|

--0----10----9----7----|--5---------4----5----|--7----7----7----7----|
-----------------------|-------5--------------|--5-------------------|
-------------9----7----|-------6--------------|--7----7----7----7----|
-----------------------|----------------------|--6-------------------|
-----------------------|--0-------------------|----------------------|
-------0---------------|----------------------|----------------------|

--5----4----5----5----|--4----2----2----2----|--4----5----4----2----|
------------2---------|------------3---------|----------------------|
--5----4----2---------|------------2---------|----------------------|
----------------------|-------0--------------|----------------------|
------------0----0----|----------------------|-------0--------------|
----------------------|----------------------|----------------------|

--0----0----0----9----|--9----9----9----10----|--9---------10----10----|
--2-------------------|------------7----------|-------7----------------|
--2-------------------|------------9----10----|--9---------------------|
----------------------|------------8----------|-------0----------------|
--0-------------------|-----------------------|------------0-----------|
----------------------|-----------------------|------------------------|

--9----7----4----5----|--7----5----||
----------------------|-------5----||
--9----7----4----6----|--7----6----||
----------------------|------------||
----------------------|-------0----||
------------0---------|------------||

Composição de João Alexandre
Colaboração e revisão:
  • Ednaldo Souza
11.346 exibições
    • ½ Tom
    • A
    • Bb
    • B
    • C
    • Db
    • D
    • Eb
    • E
    • F
    • F#
    • G
    • Ab
  • Adicionar à lista

    0 comentários

    Ver todos os comentários
    00:00 / 00:00
    Outros vídeos desta música
    Repetir Qualidade Automático
    Outros vídeos desta música
    00:00 / 00:00
    Automático

    Cifra Club Pro

    Aproveite o Cifra Club com benefícios exclusivos e sem anúncios
    Cifra Club Pro
    Aproveite o Cifra Club com benefícios exclusivos e sem anúncios
    OK