Cifra Club

Coração Só Vê Você

João Bosco e Vinícius

Cifra: Principal
exibições 196.356
Tom: F
(intro 2x) F Bb9 F Bb9


E|--1/6-6--5--3----------------------------|
B|--------------6--6--8--10--8--6--6/3-----|
G|-----------------------------------------|
D|-----------------------------------------|
A|-----------------------------------------|
E|-----------------------------------------|


E|--5/6---5----3-----------------------5/6------|
B|-----------------6--6--8--10--8--6------------|
G|----------------------------------------------|
D|----------------------------------------------|
A|----------------------------------------------|
E|----------------------------------------------|


F
Se esse amor não falasse tão alto assim...

Se voce não estivesse tão presente em mim...
        Bb9          F
Eu te deixava, te deixava....

F
Se eu pudesse te odiar como eu te quero,

Se eu pudesse te esquecer como eu te espero...
         Bb9          F         Am7
Eu te deixava...te deixava...

Dm             Am
Não consigo desviar
                     Bb9
Meu olhar pra outro olhar...
                   F      Am7
Enchergar um novo amor

Dm             Am
Pode ate acontecer
                    Bb9
Mais de tanto te querer
               C
Coração só vê você...

(refrão)
F                  Dm
Fácil é dizer... dificil é conviver
Bb9               C         F        C
Sem você tudo é saudade, solidão...
F              Dm
Fácil é dizer, que é facil te esquecer
Bb9              C           F
O dificil é convencer meu coração

(solo) F Bb9 F Bb9


E|-5/6-5-3------------------5/6-5-3--------------------------------|
B|---------6-6-8-10-8-6-6/3----------6-6-8-10-8-10-8-10-11-10-8----|
G|--------------------------------------------------------------10-|
D|-----------------------------------------------------------------|
A|-----------------------------------------------------------------|
E|-----------------------------------------------------------------|
Acordes para:
    Colaboração e revisão:

    0 comentários

      mostrar mais comentários

      Conseguiu tocar?

      13tocaram1ainda não

      Grave um vídeo tocando Coração Só Vê Você e mande pra gente!

      00:00 / 00:00
      outros vídeos desta música
      repetirqualidadeautomática
      Outro vídeos desta música
        00:00 / 00:00
        automática
        OK