Cifra Club

Deixaria Tudo

João Bosco e Vinícius

Cifra: Principal
exibições 123.153
Tom: A#
[Intro]  Cm  F  Bb  G7m

     Cm7                  F                  Bb                G7m
E|3---3--5-5/6---6-6----6-6--5-5--3-3--1--6-----------------3-3--1-1-----------------|
B|4---4--4-4-----4-4----8-8--6-6--4-4--3--6--6--8-8/10------4-4--3-3--4-4--3-x-3h4---|
G|3---3--3-3-----3-3----------------------7--7--7-7-------------------5-5--3-x-3-----|  
D|5---5--5-5-----5-5----------------------8----------------------------------x-3h5---|
A|3--------------3-3----------------------8------------------------------------------|
E|----------------------------------------6------------------------------------------|

 Cm                        Cm7           F   F7
Já tentei te convencer de tudo quanto é jeito
Bb                                       Eb
Antes que o mundo desabasse todo de uma vez

E|-x----------------------------|
B|-x-4p3----3h4-----------------|
G|-x----5p3-3h5-----------------|
D|-x--------3h5-----------------|
A|------------------------------|
E|------------------------------|

 Cm                         Cm7             F
Fiquei perdido sem você no meio de um deserto
 Bb                               Eb
Me perguntando se ainda sobreviverei

E|-3-----------3----------------|
B|-3--6--4--3--4----------------|
G|-3-----------5----------------|
D|-5-----------5----------------|
A|-5-----------3----------------|
E|-3----------------------------|

 Cm                                         F
Meu sentimento sem você ficou tão triste e vazio
 Bb                                          Eb
Já percebi que sem o seu amor eu não renascerei

 Cm                                             F
Porque a saudade está quebrando o que resta da minha ilusão
         Eb               Bb                    Cm               F
Porque preciso juntar os pedaços dentro do meu coração. Por isso eu juro que.

             Bb             Bb7
Eu deixaria tudo se você ficasse
                  Eb
Meus sonhos  meu passado  minha religião
                  F
Depois de tudo estás fugindo dos meus braços
              Bb
Deixando o silêncio desta solidão
            Eb                                        Bb  F/A  Gm
Não sei o que eu faria  desejos  loucuras  toda fantasia
                 Cm                     Eb         F            Eb  Bb/D  Cm  Bb
Nada tenho a perder  diz pra mim o que mais você quer da minha vida

 Cm                         F
Se você me falta tudo é sofrimento

E|---6-6--5-5--3------------------|
B|---8-8--6-6--4------------------|
G|--------------------------------|
D|--------------------------------|
A|--------------------------------|
E|--------------------------------|

 Bb                              Eb
Sei que é tarde demais pra se remediar

E|-3------------------------------|
B|---6-6---4-4-----4p3------------|
G|---------3-3--------3-3h5-------|
D|--------------------------------|
A|--------------------------------|
E|--------------------------------|

 Cm                                     F
De nada adianta procurar dez mil desculpas
Bb                                   Eb
Está difícil de fazer você voltar atrás

E|-3-----------3------------------|
B|-3--6--4--3--4------------------|
G|-3-----------5------------------|
D|-5-----------5------------------|
A|-5-----------3------------------|
E|-3------------------------------|

 Cm                                              F
Mesmo que eu te diga  estou morrendo um pouco a cada dia

E|-6--5--------------------------|
B|-6-----8--6--------------------|
G|-5-----------------------------|
D|-------------------------------|
A|-------------------------------|
E|-------------------------------|
 
 Bb                                          Eb
Mesmo que eu te peça  por favor vamos recomeçar

E|-3-----------3-----------------|
B|-3--6--4--3--4-----------------|
G|-3-----------5-----------------|
D|-5-----------5-----------------|
A|-5-----------3-----------------|
E|-3-----------------------------|

 Cm                                             F
Porque a saudade está quebrando o que resta da minha ilusão   
         Eb                   Bb                Cm                         F
Porque preciso juntar os pedaços dentro do meu coração. Por isso eu juro que

             Bb             Bb7
Eu deixaria tudo se você ficasse
                     Eb
Meus sonhos  meu passado  minha religião
                  F
Depois de tudo estás fugindo dos meus braços
              Bb
Deixando o silêncio desta solidão
            Eb                                        Bb  F/A  Gm
Não sei o que eu faria  desejos  loucuras  toda fantasia
                 Cm                     Eb         F            Eb  Bb/D  Cm  Bb
Nada tenho a perder  diz pra mim o que mais você quer da minha vida
Acordes para:
    Colaboração e revisão:
    • Marcos Paulo
    • João Maia
    • Rafael

    0 comentários

      mostrar mais comentários

      Conseguiu tocar?

      2tocaram0ainda não

      Grave um vídeo tocando Deixaria Tudo e mande pra gente!

      00:00 / 00:00
      outros vídeos desta música
      repetirqualidadeautomática
      Outro vídeos desta música
        00:00 / 00:00
        automática
        OK