Cifra Club

Aprenda

Deixaria Tudo

João Bosco e Vinícius

Cifra: Principal (violão e guitarra)
Tom: Bb
[Intro] Cm7  F  Bb  G7
        Cm7  F  Bb  G7

   Cm          F
E|-3--3-5-5/6--6-6-5-5-3-3-1----------------|
B|-4--4-6-6/8--8-8-6-6-4-4-3----------------|
G|-5----------------------------------------|
D|-5----------------------------------------|
A|-3----------------------------------------|
E|------------------------------------------|

   Bb       Eb 
E|-1-3-3/5--3-3-1-1-------------------------|
B|-3-4-4/6--4-4-3-3--4-4-3------------------|
G|-------------------5-5-3------------------|
D|------------------------------------------|
A|------------------------------------------|
E|------------------------------------------|

   Cm          F
E|-3--3-5-5/6--6-6-5-5-3-3-1----------------|
B|-4--4-6-6/8--8-8-6-6-4-4-3----------------|
G|-5----------------------------------------|
D|-5----------------------------------------|
A|-3----------------------------------------|
E|------------------------------------------|

   Bb       Eb 
E|-1-3-3/5--3-3-1-1-------------------------|
B|-3-4-4/6--4-4-3-3--4-4-3------------------|
G|-------------------5-5-3------------------|
D|------------------------------------------|
A|------------------------------------------|
E|------------------------------------------|

[Primeira Parte]

Cm                                         F   
  Já tentei te convencer de tudo quanto é jeito
Bb                                          Eb
   Antes que o mundo desabasse todo de uma vez

[Riff]

E|------------------------------------------|
B|-4p3----3h4-------------------------------|
G|----5p3-3h5-------------------------------|
D|--------3h5-------------------------------|
A|------------------------------------------|
E|------------------------------------------|

Cm                                          F
   Fiquei perdido sem você no meio de um deserto

[Pré-Refrão]

Bb                                   Eb
   Me perguntando se ainda sobreviverei
          Cm                                  F
Meu sentimento sem você ficou tão triste e vazio
         Bb                                  Eb
Já percebi que sem o seu amor eu não renascerei
             Cm                                    F
Porque a saudade está quebrando o que resta da minha ilusão
           Eb               Bb                  Cm               
Porque preciso juntar os pedaços dentro do meu coração 
             F
Por isso eu juro que

[Refrão]

             Bb             
Eu deixaria tudo se você ficasse
                    Eb
Meus sonhos meu passado  minha religião
                  F
Depois de tudo estás fugindo dos meus braços
              Bb
Deixando o silêncio desta solidão
              Eb                               Bb       F/A  
Não sei o que eu faria desejos loucuras todas fantasias
Gm                  Cm          Eb          
   Nada tenho a perder diz pra mim 
       F                       Eb  Bb/D  Cm  Bb
O que mais você quer da minha vida

( Cm7  F  Bb  G7 )

   Cm          F
E|-3--3-5-5/6--6-6-5-5-3-3-1----------------|
B|-4--4-6-6/8--8-8-6-6-4-4-3----------------|
G|-5----------------------------------------|
D|-5----------------------------------------|
A|-3----------------------------------------|
E|------------------------------------------|

   Bb       Eb 
E|-1-3-3/5--3-3-1-1-------------------------|
B|-3-4-4/6--4-4-3-3--4-4-3------------------|
G|-------------------5-5-3------------------|
D|------------------------------------------|
A|------------------------------------------|
E|------------------------------------------|

[Segunda Parte]

Cm                               F
   Se você me falta tudo é sofrimento
Bb                                     Eb
   Sei que é tarde demais pra se remediar
Cm                                      F
   De nada adianta procurar dez mil desculpas
Bb                                      Eb
   Está difícil de fazer você voltar atrás

[Pré-Refrão]

          Cm                                         F
Mesmo que eu te diga estou morrendo um pouco a cada dia
          Bb                                Eb
Mesmo que eu te peça por favor vamos recomeçar
             Cm                                    F
Porque a saudade está quebrando o que resta da minha ilusão
    Eb               Bb                  Cm               
Preciso juntar os pedaços dentro do meu coração 
             F
Por isso eu juro que

[Refrão]

             Bb             
Eu deixaria tudo se você ficasse
                    Eb
Meus sonhos meu passado  minha religião
                  F
Depois de tudo estás fugindo dos meus braços
              Bb
Deixando o silêncio desta solidão
              Eb                               Bb       F/A  
Não sei o que eu faria desejos loucuras todas fantasias
Gm                  Cm          Eb          
   Nada tenho a perder diz pra mim 
       F                       
O que mais você quer

             Bb             
Eu deixaria tudo se você ficasse
                    Eb
Meus sonhos meu passado  minha religião
                  F
Depois de tudo estás fugindo dos meus braços
              Bb
Deixando o silêncio desta solidão
              Eb                               Bb       F/A  
Não sei o que eu faria desejos loucuras todas fantasias
Gm                  Cm          Eb          
   Nada tenho a perder diz pra mim 
       F                       Eb  Bb/D  Cm  Bb
O que mais você quer da minha vida
Composição de Fábio Alonso Salgado / José Angel Ramon Robles Ramallo
Colaboração e revisão:
175.021 exibições
    • ½ Tom
    • A
    • Bb
    • B
    • C
    • Db
    • D
    • Eb
    • E
    • F
    • F#
    • G
    • Ab
  • Adicionar à lista

    0 comentários

    Mostrar mais comentários

    Conseguiu tocar?

    5 Tocaram 4 Ainda não

    Grave um vídeo tocando Deixaria Tudo e mande pra gente!

    00:00 / 00:00
    outros vídeos desta música
    repetir qualidade Automático
    Outros vídeos desta música
    00:00 / 00:00
    Automático

    Cifra Club Pro

    Aproveite o Cifra Club com benefícios exclusivos e sem anúncios
    7 dias grátis
    Cifra Club Pro
    Aproveite o Cifra Club com benefícios exclusivos e sem anúncios
    7 dias grátis
    OK