Notificações Amigos pendentes

      João Bosco e Vinícius

      Falando Sério

      981.604 exibições
      Tom: G
      (intro) C  D  Em7
      
      (solo)
      
      (parte 1)
      
      E|---------------------------------------------------|
      B|-7/8p7-----------------13-15/17-15-----------------|
      G|-------9-7-9~-------12-----------------------------|
      D|-----------------14--------------------------------|
      A|--------------15-----------------------------------|
      E|---------------------------------------------------|
      
      
      (parte 2)
      
      E|---------------------------------------------------|
      B|-7/8p7-------------7-8-10-8p7-8--------------------|
      G|-------9-7-9~--7-9---------------------------------|
      D|---------------------------------------------------|
      A|---------------------------------------------------|
      E|---------------------------------------------------|
      
      
      (parte 3 - repete parte 1)
      
      (parte 4)
      
      E|---------------------------------------------------|
      B|-7/8p7--------7-8/10-8~----------------------------|
      G|-------9-7-9~--------------------------------------|
      D|---------------------------------------------------|
      A|---------------------------------------------------|
      E|---------------------------------------------------|
      
      
      (primeira parte)
      
      (o primeiro ritmo dessa parte é diferenciado)
      
      
         C9            D9            Em
      E|---3-------------5-------------7----------|
      B|---3-----3-------5-----5-------8-----8----|
      G|-5-5-x-x-5-x-5/7-7-x-x-7-x-7/9-9-x-x-9-9--|
      D|-5-5-x-x-5-x-5/7-7-x-x-7-x-7/9-9-x-x-9-9--|
      A|-3---x-x---x-3/5---x-x---x-5/7---x-x---7--|
      E|------------------------------------------|
      
      
      E|------------------------------------------|
      B|-8-8-8-8p7--------------------------------|
      G|-7-7-7-7---9-7----------------------------|
      D|-----------9-7----------------------------|
      A|------------------------------------------|
      E|------------------------------------------|
      
      
      (parte 1)
                      C9               D9
      Você não tem limite você não tem hora
                    Em
      Liga pra brincar com o meu sentimento
                     C9              D9
      Faz proposta que sempre me apavora
                     Em
      Sabe o que é amar e tá perdendo tempo
      
      (parte 2)
                  C                    D
      Você me provoca eu entro no seu jogo
                   Em
      Sabe dar as cartas sabe me ganhar
                 C                  D
      Me coloca sempre em prova de fogo
                          Em
      É tudo o que eu preciso pra me entregar
      
      (refrão)
                   C                     D
      Pare de uma vez com essa brincadeira
                  Em7
      Chega de bobeira eu tô falando sério
                      C                         D
      Preciso desse amor, te amar a noite inteira
                   Em7
      Se você me quer saiba eu também te quero
      
      (repete intro)
      
      (repete toda a música)
      
          C  D                Em7
      oh uoh   eu to falando serio..
          C  D                      Em7
      oh uoh   saiba eu tambem te quero....
      
      (revisão - Gustavo Fofão)
        Composição: Elizandra SantosColaboração e revisão:
        • thiago.music
        • João Edson
        • marydias
        • Everton Harley
        • +3

        Comentários 29

        140 .
        • jeferson.rocha.148 jeferson.rocha.148: Em 20/05/2014 16:30

          Tinha que fazer uma tab ai desses solos do extras e tbm a versão de acordes!

        • deivissonl deivissonl: Em 24/11/2013 18:08

          G. Fofão é foda!!!

        • Alisson Alisson: Em 27/09/2013 19:46

          Vcs deveriam fazer mais extras como este. E batalhas entre vcs

        • Matheus Matheus : Em 16/06/2013 21:00

          caralho, >>EXTRAS

        • boinas2 boinas2: Em 20/01/2013 19:58

          na verdade, dá pra fazer o solo de um jeito mais fácil, que é a versão que eu faço e fica no mesmo tom da original

          • wilson wilson: Em 25/04/2013 21:21

            qualé o solo que vc faz jQuery172025167662813328207_1366935639850?obrigado

          • wilson wilson: Em 25/04/2013 21:21

            qualé o solo que vc faz jQuery172025167662813328207_1366935639852?obrigado

          • wilson wilson: Em 25/04/2013 21:22

            qualé o solo que vc faz jQuery172025167662813328207_1366935639853?obrigado

          • wilson wilson: Em 25/04/2013 21:22

            qua é o solo que vc faz jQuery172025167662813328207_1366935639860?obrigado

          • wilson wilson: Em 25/04/2013 21:23

            qual é o solo que vc faz ?

        140 cancelar
        0:00 / 0:00
        1 versão de Guitar Proformatodownloadscontribuição
        play/pausefechar subir/descer velocidade
        6ª corda E5ª corda A4ª corda D3ª corda G2ª corda B1ª corda E
          acordes
          publicidade
          fechar
          ok