Cifra Club

Faz de Conta / Querendo Te Encontrar (Pot-Pourri)

João Bosco e Vinícius

Cifra: Principal (violão e guitarra)
exibições 158.202
Tom: E
[Intro]

                 A                       E
E|-2/4\2-0-2-0----------0---2/4\2-0-2-0----------0--|
B|--------------------2------------------------0----|
G|-2/4\2-2-2-0------2-------2/4\2-0-2-0------1------|
D|----------------2------------------------2--------|
A|--------------0-----------------------------------|
E|---------------------------------------0----------|

                B7          A                     E
E|-2/4\2-0-2-2----------2-------9----9-7h9p7-5-4~--|
B|--------------------0------10---10---------------|
G|-2/4\2-0-2-2------2------------------------------|
D|----------------1--------------------------------|
A|--------------2----------------------------------|
E|-------------------------------------------------|

                 A                        E
E|-2/4\2-0-2-0----------0---2/4\2-0-2-0-------|
B|--------------------2------------------2-0--|
G|-2/4\2-2-2-0------2-------2/4\2-0-2-0-------|
D|----------------2---------------------------|
A|--------------0-----------------------------|
E|--------------------------------------------|

                   B7             A                 E
E|---2/4\2-0-2-2---------2----9---9-/7--5--4-----------------------|
B|---------------------0------10--10/9--7--5--4h5p4-------4-----5--|
G|---2/4\2-0-2-2------2-----------------------------6-4h6---0h1----|
D|------------------1----------------------------------------------|
A|-----------------2-----------------------------------------------|
E|-----------------------------------------------------------------|

E                         B7
 O que será que tá acontecendo
A                        E
 Eu não consigo te entender
                            B7
Talvez você esteja me aprontando
                 A
E eu aqui me acabando
                 E
De saudade de você

                              B7
Por que será que deu seu telefone
A                          E
 Se eu ligo pra você você nem liga
                             B7
Se não atende então me desespero
                           A
Será que a mulher que eu quero
                     E   E7
Não passa de uma bandida

               A
Não, não pode ser
                 E
Não posso acreditar
                 B7
Que era tudo mentira
    A                 E
O que me disse seu olhar

               A
Não, não pode ser
              E
Tô de cabeça tonta
                     B7  A
Não faça do amor um jogo
           E
De faz de conta

( A  D  A  D )
( A  D  A  D )
( A  D )

E|---9-9--7--9--7--9--7-9/10---9-9--7--9--7--9-9/12--10-|
B|------------------------------------------------------|
G|---9-9--7--9--7--9--7-9/11---9-9--7--9--7--9-9/13--10-|
D|------------------------------------------------------|
A|------------------------------------------------------|
E|------------------------------------------------------|

E|---9-9--7--9--7--9--7-9/10--9-9--7--9--7--9--5--5/7---|
B|------------------------------------------------------|
G|---9-9--7--9--7--9--7-9/11--9-9--7--9--7--9--5--5/7---|
D|------------------------------------------------------|
A|------------------------------------------------------|
E|------------------------------------------------------|

          A              D
Já não aguento mais te procurar
A                      D
 Tá tudo errado sem você pra amar
A                D
 Me diz aonde você se meteu
A                   D
 O meu destino é o mesmo que o seu

A                    D
 To me sentindo meio esquecido
     A             D
Abandonado, num caminho perdido
A                      D
 Logo a noite hora de descansar
A                 D
 Eu vou sair por ai
                E7
Pra tentar te procurar

D                          E7
 Eu vou nas festas só pra ver se eu te encontro
A                    F#m
 Nesta cidade não esta em nenhum canto
D                      E7                        A            E7
 Volto pra casa sem noticias, mas um dia eu não te encontrei
D                           E7
 Faço outras coisas pra tentar me distrair
A                    F#m
 Ultimamente não consigo nem dormir
D                       E7               A     E7
 To precisando te esquecer se você não aparecer

[Refrão]

A                    D
 Cada vez que eu te busco não esta
A                    D
 Cada vez que eu te ligo é espera
A                     D                   A
 E é por isso que eu sonho e acordo todo dia
            D
Buscando, querendo te encontrar

A                    D
 Cada vez que eu te busco não esta
A                    D
 Cada vez que eu te ligo é espera
A                     D                   A
 E é por isso que eu sonho e acordo todo dia
            D
Buscando, querendo te encontrar

A                    D
 Cada vez que eu te busco não esta
A                    D
 Cada vez que eu te ligo é espera
A                     D                   A
 E é por isso que eu sonho e acordo todo dia
            D
Buscando, querendo te encontrar

A                    D
 Cada vez que eu te busco não esta
A                    D
 Cada vez que eu te ligo é espera
A                     D                   A
 E é por isso que eu sonho e acordo todo dia
            D
Buscando, querendo te encontrar

( A  D  A  D )
( A  D  A  D )
( A  D )

E|---9-9--7--9--7--9--7-9/10---9-9--7--9--7--9-9/12--10-|
B|------------------------------------------------------|
G|---9-9--7--9--7--9--7-9/11---9-9--7--9--7--9-9/13--10-|
D|------------------------------------------------------|
A|------------------------------------------------------|
E|------------------------------------------------------|

E|---9-9--7--9--7--9--7-9/10--9-9--7--9--7--9--5--5/7---|
B|------------------------------------------------------|
G|---9-9--7--9--7--9--7-9/11--9-9--7--9--7--9--5--5/7---|
D|------------------------------------------------------|
A|------------------------------------------------------|
E|------------------------------------------------------|
Acordes para:
    Colaboração e revisão:

    0 comentários

      mostrar mais comentários

      Conseguiu tocar?

      11tocaram0ainda não

      Grave um vídeo tocando Faz de Conta / Querendo Te Encontrar (Pot-Pourri) e mande pra gente!

      00:00 / 00:00
      outros vídeos desta música
      repetirqualidadeAutomático
      Outro vídeos desta música
        00:00 / 00:00
        OK