Cifra Club

Querendo te encontrar

João Bosco e Vinícius

Cifra: Principal (violão e guitarra)
exibições 208.672
Tom: A
[Intro] A9  D9  A9  D9
        A  D  A  D
        A  D  A  E7

E|---9-9--7--9--7--9--7-9/10---9-9--7--9--7--9-9/12--10-|
B|------------------------------------------------------|
G|---9-9--7--9--7--9--7-9/11---9-9--7--9--7--9-9/13--10-|
D|------------------------------------------------------|
A|------------------------------------------------------|
E|------------------------------------------------------|

E|---9-9--7--9--7--9--7-9/10--9-9--7--9--7--9--5--5/7---|
B|------------------------------------------------------|
G|---9-9--7--9--7--9--7-9/11--9-9--7--9--7--9--5--5/7---|
D|------------------------------------------------------|
A|------------------------------------------------------|
E|------------------------------------------------------|

A                    D
Tava cansado de te procurar
A                      D
Tá tudo errado sem você pra amar
A                  D
Me diz a onde você se meteu
A                 D
O meu destino é o mesmo que o seu

A                      D
To me sentindo meio esquecido
A                 D
Abandonado, num caminho perdido
A                    D
logo a noite hora de descansar
A                   D
eu vou sair por ai
              E7         D# D
Pra tentar te procurar

D                        E7
Eu vou nas festas só pra ver se eu te encontro
A                   F#m
Nesta cidade não esta em nenhum canto
D                  E7                        A            E7 D#7
Volto pra casa sem noticias, mas um dia eu não te encontrei
D                         E7
Faço outras coisas pra tentar me distrair
A                      F#m
Ultimamente não consigo nem dormir
D                        E7               A        E7
to precisando te esquecer se você não aparecer

[Refrão]

A                  D
Cada vez que eu te busco não esta
A               D
Cada vez que eu te ligo é espera
A                   D                   A
E é por isso que eu sonho e acordo todo dia
          D               A
Buscando, querendo te encontrar

A                  D
Cada vez que eu te busco não esta
A               D
Cada vez que eu te ligo é espera
A                   D                   A
E é por isso que eu sonho e acordo todo dia
          D               A
Buscando, querendo te encontrar

( A9  D9  A9  D9 )
( A  D  A  D )
( A  D  A  E7 )

E|---9-9--7--9--7--9--7-9/10---9-9--7--9--7--9-9/12--10-|
B|------------------------------------------------------|
G|---9-9--7--9--7--9--7-9/11---9-9--7--9--7--9-9/13--10-|
D|------------------------------------------------------|
A|------------------------------------------------------|
E|------------------------------------------------------|

E|---9-9--7--9--7--9--7-9/10--9-9--7--9--7--9--5--5/7---|
B|------------------------------------------------------|
G|---9-9--7--9--7--9--7-9/11--9-9--7--9--7--9--5--5/7---|
D|------------------------------------------------------|
A|------------------------------------------------------|
E|------------------------------------------------------|

A                      D
To me sentindo meio esquecido
A                 D
Abandonado, num caminho perdido
A                    D
logo a noite hora de descansar
A                   D
eu vou sair por ai
              E7         D# D
Pra tentar te procurar

D                        E7
Eu vou nas festas só pra ver se eu te encontro
A                   F#m
Nesta cidade não esta em nenhum canto
D                  E7                        A            E7 D#7
Volto pra casa sem noticias, mas um dia eu não te encontrei
D                         E7
Faço outras coisas pra tentar me distrair
A                   F#m
Ultimamente não consigo nem dormir
D                        E7               A        E7
to precisando te esquecer se você não aparecer

[Refrão]

A                  D
Cada vez que eu te busco não esta
A               D
Cada vez que eu te ligo é espera
A                   D                   A
E é por isso que eu sonho e acordo todo dia
          D               A
Buscando, querendo te encontrar

A                  D
Cada vez que eu te busco não esta
A               D
Cada vez que eu te ligo é espera
A                   D                   A
E é por isso que eu sonho e acordo todo dia
          D               A
Buscando, querendo te encontrar

( A9  D9  A9  D9 )
( A  D  A  D )
( A  D  A  E7 )

E|---9-9--7--9--7--9--7-9/10---9-9--7--9--7--9-9/12--10-|
B|------------------------------------------------------|
G|---9-9--7--9--7--9--7-9/11---9-9--7--9--7--9-9/13--10-|
D|------------------------------------------------------|
A|------------------------------------------------------|
E|------------------------------------------------------|

E|---9-9--7--9--7--9--7-9/10--9-9--7--9--7--9--5--5/7---|
B|------------------------------------------------------|
G|---9-9--7--9--7--9--7-9/11--9-9--7--9--7--9--5--5/7---|
D|------------------------------------------------------|
A|------------------------------------------------------|
E|------------------------------------------------------|
Acordes para:

    0 comentários

      mostrar mais comentários

      Conseguiu tocar?

      3tocaram1ainda não

      Grave um vídeo tocando Querendo te encontrar e mande pra gente!

      00:00 / 00:00
      outros vídeos desta música
      repetirqualidadeAutomático
      Outro vídeos desta música
        00:00 / 00:00
        OK