Cifra Club

Prefácio

João Carreiro e Capataz

Cifra: Principal
exibições 259.186
Tom: A# (com acordes na forma de G) Capotraste na 3ª casa
intro 1º parte

E|----------------------|
B|------------1---------|
G|-----0----------------|
D|-------0h2------------|
A|--3-------------------|
E|----------------------|

intro 2º parte

E|----------------------|
B|------0--1--0---------|
G|------0-----0---------|
D|---0--------0h2p0-----|
A|----------------------|
E|-3--------------------|

intro 3º parte

E|---------1------------|
B|-----0h1--------------|
G|---2------------------|
D|----------------------|
A|-0--------------------|
E|----------------------|

intro 4º parte

E|-------------------------|
B|---1p0-------------------|
G|-------0-0h2-0-----------|
D|----------------0h2-0----|
A|----------------------3--|
E|-3-----------------------|



 C          G                   Em
No começo parecia brincadeira
                   G
Não sabíamos que era pra vida inteira
C                  G                Em
Os caminhos tomam rumos diferentes
                      G
Tinha que ser você o amor achou a gente
 F                    G
Mas um dia o rio encontra o mar
 Em                       Am   G
E eu tô aqui pra gente continuar
  C               G                Em
Hoje o correr do tempo fez sentido
                  G
Pra um querer que parecia proibido
 C                      G                   Em
Só que Deus já tinha escrito há muito tempo
                G
Que seríamos a folha e o vento

F                     G                 Em
E o que foi virou prefácio do que somos
                    Am          G
E é real o que pra nós era um sonho
C               G                 F
Chamam isso de destino eu não sei
                     G               C
Mas desde o inicio sempre te cuidei
                 G                 F
Chamam isso de amor eu também acho
               G             C
Mas seja como for me dá um abraço


   Solo:

E|-------------------7h8p7-----------------------------------------------------------|
B|--5---6--8--6/8-----------8--5-----8/10---8---6--5---------------------------------|
G|--------------------------------7-------------------7--5--7p6---------6h7--9-------|
D|---------------------------------------------------------------9--7-----------7/12-|
A|-----------------------------------------------------------------------------------|
E|-----------------------------------------------------------------------------------|


D               A          F#m
Hoje o correr do tempo fez sentido
                  A
Pra um querer que parecia proibido
 D                      A                F#m
Só que Deus já tinha escrito há muito tempo
                A
Que seríamos a folha e o vento

G                     A            F#m
E o que foi virou prefácio do que somos
                    Bm             A
E é real o que pra nós era um sonho
D               A             G
Chamam isso de destino eu não sei
                     A               D
Mas desde o inicio sempre te cuidei
               A               G
Chamam isso de amor eu também acho
               A             D
Mas seja como for me dá um abraço
Acordes para:

    0 comentários

      mostrar mais comentários

      Conseguiu tocar?

      34tocaram0ainda não

      Grave um vídeo tocando Prefácio e mande pra gente!

      00:00 / 00:00
      outros vídeos desta música
      repetirqualidadeautomática
      Outro vídeos desta música
        00:00 / 00:00
        automática
        OK