Cifra Club

Oricuri (O Segredo do Sertanejo)

João do Vale

Cifra: Principal (violão e guitarra)
tom: Bm
[Intro] Bm  E  Bm

Oricuri madurou ô é sinal
         E         Bm
Que arapuá já fez mel
Catingueira fulôro lá no sertão
      E           Bm
Vai cair chuva granel
            D
Arapuá esperando
      E        Bm
Oricuri "maduricer"
Catingueira fulôrando sertanejo
     E       Bm
Esperando chover

          D             E            Bm
Lá no sertão, quase ninguém tem estudo
                E            Bm
Um ou outro que lá aprendeu ler
Mas tem homem capaz de fazer tudo doutor
       D         E          Bm
E antecipa o que vai acontecer

  Bm7
E|-5-4-2--5-4----------|
B|-------------3-3-3---|
G|--------------------4|
D|---------------------|
A|---------------------|
E|---------------------|

[Primeiro Violão]

         Bm7
E|-----4-5-4-7-5-4---5-4-----4--------------------------------|
B|---3-------------7-----7-5---7-5-3-7-5-3-2-5-3-2------------|
G|-2-----------------------------------------------2-2-2-2s4-4| (2x)
D|------------------------------------------------------------|
A|------------------------------------------------------------|
E|------------------------------------------------------------|

[Segundo Violão]

         Bm7
E|-----5-9-7-10-9-7----9-7------7---------------------------------|
B|---7--------------10-----10-9---10-9-7-10-9-7---9-7-------------|
G|-7--------------------------------------------9-----9-6-6-6-6s7-| (2x)
D|----------------------------------------------------------------|
A|----------------------------------------------------------------|
E|----------------------------------------------------------------|

                           E7
Catingueira fulora vai chover
                          Bm7
Andorinha voou vai ter verão
                         E7
Gavião se cantar é estiada
                           Bm7
Vai haver boa safra no sertão

              E   F#      Bm
Se o galo cantar fora de hora
                E    F#   Bm
É mulher dando fora pode crer
                             D
A cauã se cantar perto de casa
                              E
É agoro é alguém que vai morrer
                                  G
São segredos que o sertanejo sabe
                 F#m7            Bm7
E não teve o prazer de aprender ler

[Primeiro Violão]

         Bm7
E|-----4-5-4-7-5-4---5-4-----4--------------------------------|
B|---3-------------7-----7-5---7-5-3-7-5-3-2-5-3-2------------|
G|-2-----------------------------------------------2-2-2-2s4-4| (2x)
D|------------------------------------------------------------|
A|------------------------------------------------------------|
E|------------------------------------------------------------|

[Segundo Violão]

         Bm7
E|-----5-9-7-10-9-7----9-7------7---------------------------------|
B|---7--------------10-----10-9---10-9-7-10-9-7---9-7-------------|
G|-7--------------------------------------------9-----9-6-6-6-6s7-| (2x)
D|----------------------------------------------------------------|
A|----------------------------------------------------------------|
E|----------------------------------------------------------------|

                           E7
Catingueira fulora vai chover
                          Bm7
Andorinha voou vai ter verão
                         E7
Gavião se cantar é estiada
                           Bm7
Vai haver boa safra no sertão

              E   F#      Bm
Se o galo cantar fora de hora
                E    F#   Bm
É mulher dando fora pode crer
                             D
A cauã se cantar perto de casa
                              E
É agoro é alguém que vai morrer
                                  G
São segredos que o sertanejo sabe
                 F#m7            Bm7
E não teve o prazer de aprender ler

Oricuri madurou ô é sinal
         E          Bm
Que arapuá já fez mel
Composição de João Do Vale / Jose Cândido
Colaboração e revisão:
  • João Sousa
632 exibições
    • ½ Tom
    • Am
    • Bbm
    • Bm
    • Cm
    • C#m
    • Dm
    • Ebm
    • Em
    • Fm
    • F#m
    • Gm
    • G#m
  • Adicionar à lista

    0 comentários

    Ver todos os comentários

    Conseguiu tocar?

    1 Tocaram 0 Ainda não

    Grave um vídeo tocando Oricuri (O Segredo do Sertanejo) e nos envie!

    00:00 / 00:00
    Outros vídeos desta música
    Repetir Qualidade Automático
    Outros vídeos desta música
    00:00 / 00:00
    Automático

    Cifra Club Pro

    Aproveite o Cifra Club com benefícios exclusivos e sem anúncios
    Cifra Club Pro
    Aproveite o Cifra Club com benefícios exclusivos e sem anúncios
    OK