Cifra Club

Aprenda

Chega de Saudade

João Gilberto

Tab de baixo: Principal
Intro:

G-------------------------------------------|
D--5h7---7--5---5h7-------------------------|
A------7--7----------5-5--5-5-5--0-5--7-0---|
E-----------------------------------------0-|

G----------------------------------------------------------------------------|   |-----------|
D----------------------------------------------------------------------------|   |-----------|
A-12--12--12-12-12-12--12--12-12-12-10--10h12-----0----12--12-12-12-12-12-12-|   |--10h12-12-|4X
E---------------------------------------------10---10------------------------|   |-----------|

G---------------------------------------12h14-14--12h14-14--12h14-14--12h14-14----14-|
D-----------------------------------------------------------------------------14-----|
A--10--10h12------0----12--12-12-12--------------------------------------------------|
E------------------------------------------------------------------------------------|

                                        Prefiro ser......
G--------------------------------------------|
D------------------4-5-7-7----7-7-7-7---7--7-|
A-10-10--10/5-5--5----------7----------7--7--|
E--------------------------------------------|

    essa metamorfose ambulante eu prefiro ser essa metamorfose ambulante do que ter aquela velha opinião formada sobre tudo do que ter aquela velha opinião formada sobre tudo
  
G|---------------------------------------------------------------------------------------------------------------------------|
D|-5--5h7-------------7-7--7-7-7----7----5--5h7-------------7-7-----7---5--5h7-------------5-----7----5-5--5h7---------------|
A|-----------5-5--0-5-----------------7---7-------5-5--0-5--------7---7-----------5-5--0-5-----7---7--------------5--0-5-----|
E|---------------------------------------------------------------------------------------------------------------------------|

           PASSAGEM                      eu quero dizer agora o oposto do que eu disse antes eu prefiro ser essa metamorfose ambulante 
G|-----------------------------------------|------------------------------------------------------------------------------------|
D|------------10---------------------------|----------5-h7----------7--7-7-7----7----5-5--5h7-------------7-7----7--------------|
A|-12--10-12-----12--10-----10------10-----|12--12-10-------5--0-5-------------7---7--------------5-5--0-5------7--7------------|
E|----------------------12-----12------12--|------------------------------------------------------------------------------------|

  do que ter aquela velha opinião formada sobre tudo sobre o que   

G|-------------------------------------------------------------------------------|
D|-5--5h7--------------7-7----7---5--5-5-7-8--8-8-8----8-8-7-7---------2-3--3-h5-|
A|------------5-5--0-5-------7---7------------------8------------0-0-4-----------|
E|-------------------------------------------------------------------------------|

  é o amor sobre que eu nem sei quem sou

G|-----------------------------------|                 |-5h7-7--|
D|-----------------------------------|                 |--------|   (5x)
A|-3--3-3--3-3-3--0-3-5-5-5----------|                 |--------|
E|-----------------------------------|                 |--------|
Composição de Antonio Carlos Jobim / Vinícius de Moraes
Colaboração e revisão:
  • Francoise Lacaze
245 exibições

0 comentários

Mostrar mais comentários

Conseguiu tocar?

0 Tocaram 0 Ainda não

Grave um vídeo tocando Chega de Saudade e mande pra gente!

00:00 / 00:00
outros vídeos desta música
repetir qualidade Automático
Outros vídeos desta música
00:00 / 00:00
Automático
OK