Destilado

João Lucas e Marcelo

tom: D
Intro:

E|---------------------------------------|
B|---7---------7-------------------------|
G|-----7---------7-----------------------|
D|-9---------9---------------------------|
A|---------------------------------------|
E|---------------------------------------|

Bm G D A (2x)

Solo(2x)
E|---------------------------------------|
B|---------------------------------------|
G|-------7-------7-------7----7-9-9/11---|
D|-9-999---9-999---9-999---9-------------|
A|---------------------------------------|
E|---------------------------------------|

    Bm                       G
Conheci ela na net, chamei pra sair comigo,
      D                         A
Só tinha dezoito aninhos, vai vendo o perigo.
    Bm                       G
Corpinho de panicat, toda cheia de frescura,
     D                           A
Pra curar essa delicinha eu faço qualquer loucura.
Em                    G
Só quer lugar bacana, vou ter que soltar a grana,
D                    A
Fazer valer a pena todo esse investimento.
Em                         G
Ela não bebe qualquer coisa,
                      D
Só bebida de primeira,
                         A                   G
Cara de patricinha mas no fundo é cachaceira.

Refrão
Bm               G
Ela é exigente, só toma bebida quente,
D
Ela não quer chop gelado,
A
Ela só toma destilado.
Bm               G
Ela é exigente, só toma bebida quente,
D
Ela não quer chop gelado,
A
Ela só toma destilado.

Bm                 G
Destilado, vai, vai...

Destilado, vem...
D                  A
O menina exigente, ela só toma destilado.

Solo (2x)
Página 1 / 1

Letras e título
Acordes e artista

resetar configurações
OK