Cifra Club

A Sua Vista

João Neto e Frederico

Cifra: Principal
exibições 118.202
Tom: A
Intro:
     A9                                F#m                              D9
E|------------------------------12-|------------------------------12-|
B|-15-14----15--14----15--14-------|-15-14----15--14----15--14-------|
G|-------14--------14--------14----|-------14--------14--------14----|
D|---------------------------------|---------------------------------|
A|---------------------------------|---------------------------------|
E|---------------------------------|---------------------------------|

A9
Penso em você é quase uma oração
F#m
Ao nosso amor minha religião
D9
Que eu sigo a risca
                                A9  E|------------------------------12-|
Mesmo quando não estou a sua vista  B|-15-14----15--14----15--14-------|
                                    G|-------14--------14--------14----|
A9
O dia todo o tempo inteiro
F#m
Ouço tua voz sinto teu cheiro
       D9
Canto pra você
                                 A9 E|------------------------------12-|
Minha amada minha coisa mais bonita B|-15-14----15--14----15--14-------|
                                    G|-------14--------14--------14----|
Bm                  C#m
Eu conto as horas pra te ver
D                    E
Pra ser domingo todo dia com você
Bm                  C#m
Ficar na paz e ser bem mais
        D                    E     F#7
Do que a gente pensou que ia ser
               B
Você chegou junto com a primavera
             G#m
Me fez alguém bem melhor do que eu era
              E                                B   F#7
Você me trouxe o sol me fez amar e ser feliz de novo
         B
Você é tudo o que eu mais queria
          G#m
E foi enchendo minha vida de alegria
          E
Tirou da escuridão
                  F#7              B
Meu coração que agora é um mar de amor

Solo: B  G#m  C#m  F#7
E|-------------------------------------------12/14-|
B|----------------5/7------12h14-14----12h14-------|
G|---4h6-6----4h6-------13----------13-------------|
D|-6--------6--------------------------------------|
A|-------------------------------------------------|
E|-------------------------------------------------|

E|-------13b14-12p11-----------13b14-12p11-----9/11-11-9---------|
B|-11/12-------------12--11/12-------------12-------------12-9\7~|
G|---------------------------------------------------------------|
D|---------------------------------------------------------------|
A|---------------------------------------------------------------|
E|---------------------------------------------------------------|

B9
O dia todo o tempo inteiro
G#m
Ouço tua voz sinto teu cheiro
       E9
Canto pra você
                               B9
Minha amada minha coisa mais bonita
C#m                   D#m
Eu conto as horas pra te ver
E                    F#
Pra ser domingo todo dia com você
C#m                   D#m
Ficar na paz e ser bem mais
         E                   F#7
Do que a gente pensou que ia ser
         B
Você chegou junto com a primavera
          G#m
Me fez alguém bem melhor do que eu era
            E                                   B   F#7
Você me trouxe o sol me fez amar e ser feliz de novo
         B
Você é tudo o que eu mais queria
         G#m
E foi enchendo minha vida de alegria
             E
Tirou da escuridão
              F#7         G#
Meu coração ooooooooooooooooooo
        C#
Você chegou junto com a primavera
         A#m
Me fez alguém bem melhor do que eu era
           F#                                C#   G#7
Você me trouxe o sol me fez amar e ser feliz de novo
         C#
Você é tudo o que eu mais queria
         A#m
E foi enchendo minha vida de alegria
            F#
Tirou da escuridão
                  G#7                 C#
Meu coração que agora é um mar de amor
E|---------------------------------|
B|---------------------------------|
G|---6h8-8---6h8-8---6h8-8---6h8-8~|
D|-8-------8-------8-------8-------|
A|---------------------------------|
E|---------------------------------|
Acordes para:

    0 comentários

      mostrar mais comentários

      Conseguiu tocar?

      6tocaram0ainda não

      Grave um vídeo tocando A Sua Vista e mande pra gente!

      00:00 / 00:00
      outros vídeos desta música
      repetirqualidadeautomática
      Outro vídeos desta música
        00:00 / 00:00
        automática
        OK