Cifra Club

Não Vou Mais Chorar

João Neto e Frederico

Cifra: Principal
exibições 237.949
Tom: D
(intro) D A Bm G

E|----------------------------------------9-------------------------------------|
B|---------------10-10-10-10-10-10-10-10-----10/12-12-12-12-12-12-12-10-10-10-10|
G|---------7-9/11---------------------------------------------------------------|
D|-7-7-7-9----------------------------------------------------------------------|
A|------------------------------------------------------------------------------|
E|------------------------------------------------------------------------------|

(solo acordeon) D A Bm G

E|----------------12/14-14-14-14-12----------------------------------------|
B|-10-10-10-12-10--------------------10-10-10-12-10-12/15-15-15-15-15-15-15|
G|-------------------------------------------------------------------------|
D|-------------------------------------------------------------------------|
A|-------------------------------------------------------------------------|
E|-------------------------------------------------------------------------|

(parte 1)
    D                           A
Te esquecer era o que eu mais queria
      Bm                 G
O que fez comigo é covardia

        D                     A
Você pisou, machucou meu coração
                        Bm       G
e não pensou nas conseqüências dessa paixão (2x)

(parte 2)
    Bm                        G
E agora escute bem, vou lhe dizer
           A
Já não te quero mais
     Em             Bm
Esse papo de agora amar
          A
Comigo não rola mais

                 D                  A
Não vou mais chorar por quem me magoou
              Bm                         G
Agora você dançou, vou procurar um novo amor
              D                   A
Que saiba me amar, saiba me dar valor
              Bm                         G
Agora você dançou, vou procurar um novo amor (2x)

(solo intro / solo acordeon)

(repete parte 1 e 2)

D                           A
Não vou mais chorar por quem me magoou
      Bm                 G
Agora você dançou, vou procurar um novo amor
        D                     A
Que saiba me amar, saiba me dar valor
              Bm                       G
Agora você dançou, vou procurar um novo amor (3x)

(solo Acordeon)
Acordes para:
    Colaboração e revisão:

    0 comentários

      mostrar mais comentários

      Conseguiu tocar?

      25tocaram0ainda não

      Grave um vídeo tocando Não Vou Mais Chorar e mande pra gente!

      00:00 / 00:00
      outros vídeos desta música
      repetirqualidadeautomática
      Outro vídeos desta música
        00:00 / 00:00
        automática
        OK