Cifra Club

Aprenda

Era Só Pra Ficar

João Pedro e Cristiano

Cifra: Principal (violão e guitarra)
tom: E
Intro: E  G#m  C#m  C#m/B  A  E  F#m  B  E
E|------12-12-----11-11-----9-9--9p7-7-7--|
B|--7h9-------9h7-------7h5---------------|
G|----------------------------------------|
D|----------------------------------------|
A|----------------------------------------|
E|----------------------------------------|

E|-7p5-7-7/9---------------7-9-12-12-11-11/12--|
B|----------10-9-7-9-9/10----------------------|
G|---------------------------------------------|
D|---------------------------------------------|
A|---------------------------------------------|
E|---------------------------------------------|

       E
Tinha tudo pra ser
  G#m                 C#m      C#m/B
só mais uma aventura sem amor
  A                       F#m
A gente até ja tinha combinado
             B
que não era nada sério
      E             G#m            C#m    C#m/B
Mas se tratando de amor tudo é imprevisível
      A                      F#m
O que era uma aventura se tornou uma loucura uma
 B
obsessão

E          G#m                     C#m
 Tudo começou com um olhar inocente
            C#m/B                   A
Mas depois de um beijo ficou diferente
                F#m            B
Foi pintando um doce desejo no ar

E            G#m                      C#m
Descobri que agente não escolhe o destino
               C#m/B               A
No seu colo as vezes pareço um menino
             F#m        B
Querendo ter asas pra voar

    E
Era só pra ficar
G#m                       C#m
A gente foi ficando e acabou se
     C#m/B        A
Apaixonando pra valer
      F#m
O que era só momento ou um simples passa-tempo fez o
 B
Amor acontecer
     E
Era só pra ficar
G#m                       C#m
A gente foi ficando e acabou se
     C#m/B           A
Apaixonando de uma vez
      F#m
O que era só momento só um simples passa-tempo se
    B
Perdeu no amor que agente fez

Intro: E  G#m  C#m  C#m/B  A  E  F#m  B  E
Colaboração e revisão:
  • Luis Camillo
13.004 exibições
    • ½ Tom
    • A
    • Bb
    • B
    • C
    • Db
    • D
    • Eb
    • E
    • F
    • F#
    • G
    • Ab
  • Adicionar à lista

    0 comentários

    Ver todos os comentários

    Conseguiu tocar?

    1 Tocaram 1 Ainda não

    Grave um vídeo tocando Era Só Pra Ficar e nos envie!

    00:00 / 00:00
    outros vídeos desta música
    repetir qualidade Automático
    Outros vídeos desta música
    00:00 / 00:00
    Automático

    Cifra Club Pro

    Aproveite o Cifra Club com benefícios exclusivos e sem anúncios
    Cifra Club Pro
    Aproveite o Cifra Club com benefícios exclusivos e sem anúncios
    OK