Games

Joe Jonas

tom: G
Intro:
E|-------------------------------------------|
B|-------------------------------------------|
G|------------66666666----------------x4-----|  (2x)
D|--22222222--66666666--666666666666--x4x4x--|
A|--22222222--44444444--666666666666--x2x4x--|
E|--00000000------------444444444444----x2x--|

Verso:
E|------------------------------------|
B|------------------------------------|
G|--6-6-6-6-6-6-6-6--4-4-4-4-4-4-4-4--|   (4x)
D|--6-6-6-6-6-6-6-6--4-4-4-4-4-4-4-4--|
A|--4-4-4-4-4-4-4-4--2-2-2-2-1-1-2-2--|
E|------------------------------------|

Pré-Refrão:
E|--------------|
B|--------------|
G|--------------|
D|--4~~---------|
A|--4~~---------|
E|--2~~---------|

Refrão:
E|-------------------------------------------|
B|-------------------------------------------|
G|------------66666666----------------x4-----|   (4x)
D|--22222222--66666666--666666666666--x4x4x--|
A|--22222222--44444444--666666666666--x2x4x--|
E|--00000000------------444444444444----x2x--|

E|-------------------|
B|-------------------|
G|-------------------|
D|--2~~~~----4~~~~---| 
A|--2~~~~----4~~~~---| 
E|--0~~~~----2~~~~---| 

Verso:
E|------------------------------------|
B|------------------------------------|
G|--6-6-6-6-6-6-6-6--4-4-4-4-4-4-4-4--|
D|--6-6-6-6-6-6-6-6--4-4-4-4-4-4-4-4--| (4x)
A|--4-4-4-4-4-4-4-4--2-2-2-2-1-1-2-2--|
E|------------------------------------|

Pré-Refrão:
E|--------------|
B|--------------|
G|--------------|
D|--4~~---------|
A|--4~~---------|
E|--2~~---------|

Refrão:
E|-------------------------------------------|
B|-------------------------------------------|
G|------------66666666----------------x4-----|   (4x)
D|--22222222--66666666--666666666666--x4x4x--|
A|--22222222--44444444--666666666666--x2x4x--|
E|--00000000------------444444444444----x2x--|

E|-------------------|
B|-------------------|
G|-------------------|
D|--2~~~~----4~~~~---|
A|--2~~~~----4~~~~---|
E|--0~~~~----2~~~~---|

Ponte:
E|------------------------|
B|------------------------|
G|------------------------|
D|--222222222222222222----|
A|--222222222222222222----|
E|--000000000000000000----|

E|------------------------------------|
B|------------------------------------|
G|------------------------------------|
D|--22222222--44444444--55555555--6/--|
A|--22222222--44444444--55555555--6/--|
E|--00000000--22222222--33333333--4/--|

Refrão:
E|-------------------------------------------|
B|-------------------------------------------|
G|------------66666666----------------x4-----|
D|--22222222--66666666--666666666666--x4x4x--|
A|--22222222--44444444--666666666666--x2x4x--|
E|--00000000------------444444444444----x2x--|

E|-------------------|
B|-------------------|
G|-------------------|
D|--2~~~~----4~~~~---|
A|--2~~~~----4~~~~---|
E|--0~~~~----2~~~~---|

E|-------------------------------------------|
B|-------------------------------------------|
G|------------66666666----------------x4-----|
D|--22222222--66666666--666666666666--x4x4x--| (3x)
A|--22222222--44444444--666666666666--x2x4x--|
E|--00000000------------444444444444----x2x--|

E|-------------------|
B|-------------------|
G|-------------------|   (3x)
D|--2~~~~----4~~~~---|
A|--2~~~~----4~~~~---|
E|--0~~~~----2~~~~---|

E|----------------------|
B|----------------------|
G|----------------------|
D|--2~~~~----4~~~~--6~~-|
A|--2~~~~----4~~~~--6~~-|
E|--0~~~~----2~~~~--4~~-|
Página 1 / 1

Letras e título
Acordes e artista

resetar configurações
OK