Hollywood

Joe Jonas

tom: Am
Intro e Verso 4x:
E|---------------------------|
B|---------------------------|
G|------5--------------------|
D|-5---------5----3--2-------|
A|-----5---------------------|
E|5---------3----1--0--------|

Ponte 2x:
E|--------------------------------|
B|--------------------------------|
G|--------------------------------|
D|33333333555555557777777755555555|
A|33333333555555557777777755555555|
E|11111111333333335555555533333333|

E|-----------------------|
B|-----------------------|
G|7----------------------|
D|7----------------------|
A|5----------------------|
E|-----------------------|

Refrão 2x:
E|--------------------------------|
B|--------------------------------|
G|5555555555555555----------------|
D|55555555555555553333333333333333|
A|33333333333333333333333333333333|
E|----------------1111111111111111|

Refrão:
E|------------------------------------|
B|------------------------------------|
G|------------------------------------|
D|77777777555555553-x3-----3-3-3------|
A|77777777555555553-x32h3p23-3-32h3p2-|
E|55555555333333331-x1-----1-1-1------|

e|-----------------------------------|
B|-----------------------------------|
G|4--------5-s-12----9---------------|
D|-----------------------------------|
A|-----------------------------------|
E|-----------------------------------|

Interludio:
E|----------------------------------|
B|----------------------------------|
G|77777777--------------------------|
D|7777777777777777------------------|
A|5555555577777777------------------|
E|--------555555553x33s15-33x33s15--|

E|15--13--12--10--9-9-10--9--5--3--1-1-|
B|-------------------------------------|
G|-------------------------------------|
D|-------------------------------------|
A|-------------------------------------|
E|-------------------------------------|

E|------------------------------------|
B|------------------------------------|
G|------------------------------------|
D|77--------------3333333333333333----|
A|77--------------3333333333333333----|
E|55--------------1111111111111111----|

E|--------------------------------|
B|--------------------------------|
G|5555555555555555----------------|
D|55555555555555553333333333333333|
A|33333333333333333333333333333333|
E|----------------1111111111111111|

E|------------------------------------|
B|------------------------------------|
G|------------------------------------|
D|77777777555555553-x3-----3-3-3------|
A|77777777555555553-x32h3p23-3-32h3p2-|
E|55555555333333331-x1-----1-1-1------|

e|-----------------------------------|
B|-----------------------------------|
G|4--------5-s-12----9---------------|
D|-----------------------------------|
A|-----------------------------------|
E|-----------------------------------|

Outro:
E|------------------------------------|
B|------------------------------------|
G|555-s-------------------------------|
D|555-s---------------------------77--|
A|333-s---------------------------77--|
E|--------------------------------55--|
Página 1 / 1

Letras e título
Acordes e artista

resetar configurações
OK