Cifra Club

Live To Party

Joe Jonas

Cifra: Principal (violão e guitarra)
tom: B
Intro 2x: E  B  F#

Verso:
E|-------------------------------------|
B|-------------------------------------|
G|---1-1-----4-4-----------------------|   (4x)
D|---2-2-----4-4-----4-4-----4-4-------|
A|---2-2-----2-2-----4-4-----4-4-------|
E|-------------------2-2-----2-2-------|

Refrão:
E|--------------------------|
B|--------------------------|
G|---1----4-----------------|   (2x)
D|---2----4----4----6-------|
A|---2----2----4----6-------|
E|-------------2----4-------|

Pós-Refrão 2x: E  B  F#

Verse 2:
E|-------------------------------------|
B|-------------------------------------|
G|---1-1-----4-4-----------------------|   (4x)
D|---2-2-----4-4-----4-4-----4-4-------|
A|---2-2-----2-2-----4-4-----4-4-------|
E|-------------------2-2-----2-2-------|

Refrão:
E|--------------------------|
B|--------------------------|
G|---1----4-----------------|   (2x)
D|---2----4----4----6-------|
A|---2----2----4----6-------|
E|-------------2----4-------|

Pós-Refrão 2x: E  B  F#

Ponte:
E|------------------------|
B|------------------------|
G|------------------------|   (2x
D|---6----4----2----4-----|
A|---6----4----2----4-----|
E|---4----2----0----2-----|

drove her home and then she whispered in my ear...

Refrão:
E|--------------------------|
B|--------------------------|
G|---1----4-----------------|
D|---2----4----4----6-------|
A|---2----2----4----6-------|
E|-------------2----4-------|
Compositor não encontrado.
Colaboração e revisão:
  • alice correa
384 exibições
    • ½ Tom
    • A
    • Bb
    • B
    • C
    • Db
    • D
    • Eb
    • E
    • F
    • F#
    • G
    • Ab
  • Adicionar à lista

    0 comentários

    Ver todos os comentários

    Conseguiu tocar?

    0 Tocaram 0 Ainda não

    Grave um vídeo tocando Live To Party e nos envie!

    00:00 / 00:00
    Outros vídeos desta música
    Repetir Qualidade Automático
    Outros vídeos desta música
    00:00 / 00:00
    Automático

    Cifra Club Pro

    Aproveite o Cifra Club com benefícios exclusivos e sem anúncios
    Cifra Club Pro
    Aproveite o Cifra Club com benefícios exclusivos e sem anúncios
    OK