Love Bug

Joe Jonas

tom: E
                B                 A               E
Called her for the first time yesterday
B                 A              E
Finally found the missing part of me
B                 A              E
Felt so close but you were far away
B                 A              E
Left me without anything to say

Refrão:
E                                          E5/Eb
Now I'm speechless, over the edge, I'm just breathless
                            A                        E
I never thought that I'd catch this love bug again
E                                 E5/Eb
Hopeless, head over heels in the moment
                            A                          E
I never thought that I'd get hit by this love bug again

E|---------------------------9-7-------------------------|
B|-4-4-4-4---5--4--2--7-9-----------4-4-4-4---5--4--2-0--|
G|-------------------------------------------------------|
D|-------------------------------------------------------|
A|-------------------------------------------------------|
E|-------------------------------------------------------|

B                 A               E
I can't get your smile out of my mind
[I can't get you out of my mind]
B                 A               E
I think about your eyes all the time
B                 A               E
You're beautiful but you don't even try
(You don't even, don't even try)
B                 A               E
Modesty is just so hard to find

Refrão:
E                                          E5/Eb
Now I'm speechless, over the edge, I'm just breathless
                            A                        E
I never thought that I'd catch this love bug again
E                                 E5/Eb
Hopeless, head over heels in the moment
                            A                          E
I never thought that I'd get hit by this love bug again

B                  A               E
Kissed her for the first time yesterday
B                  A               E
Everything I wished that it would be
B                  A           E
Suddenly you forgot how to speak.
B                   A                  E
Hopeless, breathless baby can't you see?

Now I'm...

Solo: E  G#  A  E
E|-------------------------------------------------------------------|
B|--5--7--9-9---9-10-12-10-9--5--9-9--9-10-12-10-9-5-5/9-5--7-7-5-5--|
G|-------------------------------------------------------------------|
D|-------------------------------------------------------------------|
A|-------------------------------------------------------------------|
E|-------------------------------------------------------------------|

E|--7-7--7-9-12-9--7--5--7-7--9--12--9--7--5--7---5/4-5--5--4-4------|
B|-------------------------------------------------------------------|
G|-------------------------------------------------------------------|
D|-------------------------------------------------------------------|
A|-------------------------------------------------------------------|
E|-------------------------------------------------------------------|
Página 1 / 1

Letras e título
Acordes e artista

resetar configurações
OK