Cifra Club

Aprenda

Little Wing

Joe Satriani

Cifra: Principal (violão e guitarra)
tom: Bb
Essa é uma versão da música Little Wing do Jimmy Hendrix gravada pelo Joe Satriani... Não sei a data dessa gravação, se alguém souber de algo, entre em contato... valeu.
 
Afinação: D#
                                                
E|-x-12\----x-x----------------------------3-3------------------|
B|-x-12\----x-x----------------------------3-3-3-3-3---3-3-3-3--|
G|-x--------x-x--------------0-0h2h0-------0-0---4-4h5-5-4-5-4-2|
D|-x--------x-x--2-------0-2--------------0------5-5---5-5-5-5--|
A|-x--------x-x----0-2-3----------------------------------------|
E|-x-----0--x-x----------------------3/5-3----------------------|
  
        
E|---0-----------0---------------------------------3h5h3-3------|
B|----1----------1h3-1-1---------------------------3-----3------|
G|-----0-----0-------0-0h2--------------------------------------|
D|------2--2---2-------------------------------------------2-2--|
A|-0-----3-----------------3-3-3/5-3-0--------------------------|
E|------------------------------------3/5\3-0--0-0--------------|
                        
                                
E|------------------9--------9--9-------------------------------|
B|-----3---3------0-10----10-10-10------7---------------1-1-1---|
G|---2-2h4-2-0------11-11-9--11-11------7---2-4-2-0-----0-2-0---|
D|--5----------2----9-----9--9--9-------9---2-2-2-0-3-2---------|
A|--------------2----------------------9--0---------------------|
E|----------------------------------x-7-------------------------|

E|------------/7-5-3-3/5\3-3------------------------------------|
B|------------/7-5-3-3/5\3-3---------------1-1-1-3-1------------|
G|--------0-2--0-0-0-0-----0---------------2-2-2-2-2-0-----2-2--|
D|---------------------------------------------------------0-0--|
A|-/3\-----------------------0-3-0-3-0-0h3-------------3/5------|
E|-----/3-------------------------------------------------------|
        
                           *Aqui começa a bateria, o vocal e o baixo
E|--------------------------------------------------------------|
B|-----------0h3-----------3------------------------------------|
G|-2-2-2-2--2----2-2-0-0---2------------------------------------|
D|-0-0-0-0---------------2--------------------------------------|
A|--------------------------------------------------------------|
E|--------------------------------------------------------------|

E|-12\---------------------------------------------------------5|
B|-12\---------------------------------------------------------5|
G|---------------------------------------2-0-2-2/4-2-0-2-------2|
D|-------0h2h0---2---2---2-0-2-0---------2-0-2-2/4-2-0-2-------2|
A|-------------------------------0-2-0-------------------------0|
E|-----0-------0---0---0---------------3-----------------3h4h5--|

E|------------------------3h5h3-3-------3---------7-9-7---------|
B|------------------------3---------------3-------7-----10-7----|
G|-2-1-0-------0h2----------------2---------2-0---7----------7--|
D|-------2-0-2----------------------2-2-----------9-------------|
A|----------------------------------------------2---------------|
E|-----------------0--0-0---------------------------------------|

                       0:56
E|--------------------------------------------------3------3-3--|
B|--------------------------------------------------3------3-3--|
G|-7h9h7---7-7h9h7----------------------------------------------|
D|-------9---------9h8h7---9-8-7----------------------4-5-------|
A|-------------------------------7-8-7-8-7-8--7-----------------|
E|----------------------------------------------3-3-------------|

                                                      *Virada da bateria        
E|--------------------------------------------------------------|
B|--------------------------------------------------------------|
G|-0-------------5-5-5-5-5/7--7-7-7-7-7-7-7-7-7-7-7-7-7---------|
D|---3-----------5-5-5-5-5/7--7-7-5-5-5-5-5-5-5-5-5-5-5---------|
A|-----3-3-0-/3--3-3-3-3-3/5--5-5-5-5-5-5-5-5-5-5-5-5-5---------|
E|--------------------------------------------------------------|

E|-12\------------------12-10-12-7-10-7-5-7-5-------------------|
B|-12\------------------12-10-12-7-10-7-5-7-5-------3/5\3-/5-\3-|
G|--------------------------------------------------2/4\2-/4-\2-|
D|--------0h2h0h2h0h2--------------------------7~---------------|
A|--------------------------------------------------------------|
E|------0---------------------------------------3---------------|

E|-------5--------------------------x-x-3h5h3-3-----------------|
B|-------5--------------------------x-x-3-----------------------|
G|-------2--------------------------x-x-0-------2-----0--2-2/4-4|
D|-------2----------------------------------------2-2-----------|
A|-------0--x-x-0-3-5-5/7\5-------------------------------------|
E|-3-4-5--------------------3-5/7-0-----------------------------|

E|-----9-7-9-7-7-x-x-6-6-5--------------------------------------|
B|-----7-7-7-7-7-x-x-6-6-5h7h5--0-1-0-1-------------------------|
G|-----7-7-7-7-7-x-x-6-6-6------0-2-0-2-------------------------|
D|----------------------------------------2-3-2-3-2-3-2---------|
A|---9----------------------------------0---------------3-------|
E|-7------------------------------------------------------3-----|

                                
E|-------------5/7-5\3-3----------------------------------------|
B|-------------5/7-5\3-3----------------------------------------|
G|-0h2h0-----------0---0---------5-5-5-5-5/7--7-7-7-7-7-7-7-7-7-|
D|-------0h2h0-------------------5-5-5-5-5/7--7-7-5-5-5-5-5-5-5-|
A|-----------------------3-0-0/3-3-3-3-3-3/5--5-5-5-5-5-5-5-5-5-|
E|--------------------------------------------------------------|

                1:47 *Virada da bateria, final do vocal         
E|--------------------------------------------------------------|
B|--------------------------------------------------------------|
G|--------------------------------------------------------------|
D|-7-7-7--7--7--7-----------------------------0h2h0h2h0h2h0h0h2h|
A|-7-7-7--7--7--7-------------------------0---------------------|
E|-5-5-5--5--5--5-----------------------3---3-------------------|

E|--------------------------------------------------------------|
B|--------------------------------------------------------------|
G|--------------------------------------------------------------|
D|0h2h0h2h0h0h2h0h2h0h2h0h0h2h0h2h0h2h0h0h2h0h2h0h2h0-----------|
A|--------------------------------------------------------------|
E|-----------------------------------------------------0-3------|

                                 2:00
E|----------------------------------5-7-5h7h5---5----------5----|
B|---------5-5-1---1-1---1----------5---------8---8-5----5------|
G|---------5-5-0h2-2-0h2-2----------5-----------------7b--------|
D|-----5-------------------0h2h0----7---------------------------|
A|-5/7---7-----------------------0------------------------------|
E|--------------------------------------------------------------|

                   (Harmônicos)
E|--------------------------12-------7-----7-7-9-8-7-----7-7----|
B|------------------------12---------7-10b-7-7-------10b-7-7-10-|
G|-7b-5----------------12---------------------------------------|
D|------7-----------12------------------------------------------|
A|--------5h7h5h7-----------------------------------------------|
E|----------------0-------------0/7-----------------------------|

E|-----------------x----------------------------------------/5-5|
B|------------------x----------5\3-3-1----------------------/5-5|
G|-9/11-9-7----------x---------------0-0h2-0--------------------|
D|----------9\7-------x----5-----------------0h2-0h2------------|
A|--------------0------5-7---7----------------------------------|
E|---------------------------------------------------3--3-x-----|

                                                        2:27 *Virada da bateria 
E|5\3-3---------------0-----------------------------------------|
B|5\3-3---------------3h1-------------------0h3-------3---------|
G|0-------------------0-------2-2-2-2-2-2-2-----2-0---2---------|
D|----------------------------0-0-0-0-0-0-----------2-0---------|
A|--------0-0-0/3--3-----3/5------------------------------------|
E|------3-------------------------------------------------------|
                                ^Erro do Satriani (3/7)
  2:30 *Aqui começa o solo
E|--------------------------------------------------------------|
B|--------------------------------------------------------------|
G|----12-14b-14-12-14--14-12------------------------------------|
D|-14------------------------14-14--/14-12----------------------|
A|-----------------------------------------14-13-12\---------12-|
E|----------------------------------------------------/12-15----|

E|--------------------------------------------------------------|
B|--------------------------------------------------------------|
G|--------------------------------------------------------------|
D|-------12-----------------------------------------------------|
A|-12/14----12----12----12/14-12/14-12/14-12/14-13-12-----12----|
E|-------------15----15--------------------------------15----15-|

E|--------------------------------------------------------------|
B|--------------------------15----------------------------------|
G|----------12-14b-14-12-------14b-14-12/14\12------------------|
D|-12-14-----------------14--------------------14-14~-14-12-----|
A|----------------------------------------------------------14--|
E|-------12-----------------------------------------------------|

E|------------12-12--12--------------------------------12-------|
B|------------12-15--15-12-15-----------------------12----12-15-|
G|------------12-14b-14-12-14~--12h14h12----12-14b--------------|
D|---------14----------------------------14---------------------|
A|-13-12\-------------------------------------------------------|
E|--------------------------------------------------------------|

E|--------------------------------------------------------------|
B|-15-----------------------------------------------------------|
G|-14b-12-14-12----12-------------------------------------------|
D|--------------14-12-12h14h12--------------------------12-14---|
A|-----------------------------14-13-12-12~-10-12-12/14---------|
E|--------------------------------------------------------------|

E|--------------------------------------------------------------|
B|-------------12-----------------------------------------------|
G|-12h14-14-12----12----12-12-12--------------------------------|
D|----------------12h14-14-12-12------------------------12------|
A|-------------------------------/14-14-13-12--10-12/14----12---|
E|--------------------------------------------------------------|

E|--------------------------------------------------------------|
B|--------------------------------------------------------------|
G|---------------------------------------------------12---------|
D|------------------------------------------------12----12-14---|
A|-10-----10-12-12/14----12--10h12h10----10-12/14---------------|
E|-----12-------------15--------------12------------------------|

   3:06
E|--------------------------------------------------------------|
B|-------------15-----------------------------------------------|
G|----12-14-12-----9-12/14\9/14\9/14-/14-14-/14-14-14\12-12-/9--|
D|-14----------12-----------------------------------------------|
A|----10-12-10-----7-10/12\7/12\7/12-/12-12-/12-12-12\10-10-/7--|
E|-12-----------------------------------------------------------|

E|----------------/15-15-15-15-15-15-15-15-15-15-15-15-15-15----|
B|--------------------------------------------------------------|
G|-9-/9-9-9-/9\---/12-12-12-12-12-12-12-12-12-12-12-12-12-12----|
D|--------------------------------------------------------------|
A|-7-/7-7-7-/7\-------------------------------------------------|
E|--------------------------------------------------------------|

      3:18
E|--------------------------------------------------------------|
B|-12-15--15-12---------------------15--------------------------|
G|-12-14b-14-12----12-14b-14b-12-------14b-14-12-12h14-12-------|
D|--------------14---------------14--------------14----14--12-12|
A|--------------------------------------------------------------|
E|--------------------------------------------------------------|

E|--------------------------------------------------------------|
B|-------------------------12-----------------------------------|
G|-------------------------12-14~-/14-12------------------------|
D|-14----------14----14-------14~--------14-------------12-12h14|
A|------------------------------------------14-12---------------|
E|----12-12-12----12----12------------------------15-12---------|

   *Harmonica natural
E|----------------------12-12-12--12-12-12----------------------|
B|----------------------12-15-15--15-12-15--------------------12|
G|-12-------------------12-14-14b-14-12-14-12h14h12----12-14b---|
D|-12--12h14---------14-----------------------------14----------|
A|-----------12h14\---------------------------------------------|
E|--------------------------------------------------------------|

E|-12-----------------------------------------------------------|
B|----15h12----12-----------------------------------------------|
G|----------14----14bh12----12h14h12----12----------------------|
D|-----------------------14----------14-----/14-12--------------|
A|-------------------------------------------------14-12-10-12--|
E|--------------------------------------------------------------|

E|--------------15-15-----15-----------13-13-----13-------------|
B|--------------15-15-----15-----------13-13-----13-------------|
G|----------14b-------14b----14b-9-12b-------12b----12b\--7-9---|
D|-------12-----------------------------------------------9-----|
A|-12/14--------------------------------------------------------|
E|--------------------------------------------------------------|

                      3:42
E|---------------------------10----------------10---------------|
B|---------------------------10----------------10---------------|
G|-7h9h7----7----7-----------11-12-11h12h11----11-12-11h12h11---|
D|-------10---10---10-0--0-x----------------12----------------12|
A|--------------------------------------------------------------|
E|--------------------------------------------------------------|

              (*Harmônicos com alavanca v)(*Alavanca ^) 
E|-10-10-----x-12--------------------------0--------------------|
B|-10-10-----x-12--------------------------0--------------------|
G|-12-12-11\-x-12--------------------------0--------------------|
D|-------12\-x-12--------------------------0--------------------|
A|-----------x--------------------------------------------------|
E|-----------x--------------------------------------------------|
                                        
   
E|------------------------------------------------------12------|
B|-15b--15b--15b-15b-15b-12-----12-15----------------------15---|
G|--------------------------14b-------14bh12----12h14b----------|
D|-------------------------------------------14-----------------|
A|(^Guitarra distorcida)----------------------------------------|
E|--------------------------------------------------------------|

E|--------------------------------------------------------------|
B|--------------------------------------------------------------|
G|-14b-14-12----12---------------12-14b-12-14-12h14h12----12-14b|
D|-----------14----14\-----12-14-----------------------14-------|
A|--------------------------------------------------------------|
E|---------------------/12--------------------------------------|

E|--------15----------------------------------------------------|
B|-15-----15----------------------------------------------------|
G|----14b----14-12-14-12-------------12-14~---------------------|
D|-----------------------14-12-14----12-14~-/14-12--------------|
A|-------------------------------------------------14-13-12-----|
E|--------------------------------12------------------------15--|

E|-----------------x--------------------------------------------|
B|-----------------x----------------------------12----12-12h13--|
G|-------------12\-x-14b-12-14-14b-\13-12-0-14b----14-----------|
D|----12-12h14-12\-x--------------------------------------------|
A|--------------------------------------------------------------|
E|-12-----------------------------------------------------------|

E|----------------------------------------------------------15--|
B|-12h13-12h13-12h13-12----15b--15b-15b-15-12-----12-15-----15--|
G|----------------------12--------------------14b-------14b-----|
D|--------------------------------------------------------------|
A|--------------------------------------------------------------|
E|--------------------------------------------------------------|

E|-15-----15-----------11-11-----11-----------------------------|
B|-15-----15-----------11-11-----11-----------------------------|
G|----14b----14b-9-12b-------12b----12b\--7-9-7h9h7----7----7---|
D|----------------------------------------9---------10---10---10|
A|--------------------------------------------------------------|
E|--------------------------------------------------------------|

                                                     (*Harmônicos com alavanca v)
E|----------10-------------10-------------10--------x-12--------|
B|----------10-------------10-------------10--------x-12--------|
G|----------11-12-11h12----11-12-11h12----12-11-----x-12--------|
D|-/12-12-x-------------12-------------12-------12\-x-12--------|
A|--------------------------------------------------------------|
E|--------------------------------------------------------------|

  (*Alavanca ^) 4:29
E|-0------------------------------------------------15-15-15-15-|
B|-0------------------------15b-15b-15-12-12h15-----15-15-15-15-|
G|-0--------------------------------------------14b-------------|
D|-0------------------------------------------------------------|
A|--------------------------------------------------------------|
E|--------------------------------------------------------------|

E|-15-15-15-15--15-15-15-15--15-15-15-15--15-15-15-15--15-15-15-|
B|-15-15-15-15--15-15-15-15--15-15-15-15--15-15-15-15--15-15-15-|
G|--------------14b----------14b----------14b----------14b------|
D|--------------------------------------------------------------|
A|--------------------------------------------------------------|
E|--------------------------------------------------------------|

E|-15--15-15-15-15----------------------------------------------|
B|-15--15-15-15-15--15---------------------------------------12-|
G|-----14b----------14b-14-12h14h12----12-14b-14-12----12-14----|
D|----------------------------------14--------------14----------|
A|--------------------------------------------------------------|
E|--------------------------------------------------------------|

E|--------------------------0-0-0-0----------0--------------0---|
B|-12h15--------------------0-0-----3-0----0----------0-0-3---/5|
G|--------12---------12-----0-0---------2b------0-0-2-----------|
D|-----------0-12-14----14\-2-2---------------------------------|
A|--------------------------2-2---------------------------------|
E|--------------------------0-0---------------------------------|

E|-----5h7---5--0-----------------------------------------------|
B|-8-5-----8------3h0---3h0-------------------------------------|
G|--------------------2-----2-0h2h0-------------------0h2h0-2h0-|
D|----------------------------------0h2h0-------0h2h0-----------|
A|----------------------------------------0h2h0-----------------|
E|--------------------------------------------------------------|

E|----------------------------------------------3-3----3----0---|
B|----------------------------------------------3-3----3--------|
G|---2h0---2h0-------------------------------2b-----2b---2b-----|
D|-2-----2-----2-2-0-----------0-----------0--------------------|
A|-------------------2-0---0-2---2-0---0-2----------------------|
E|-----------------------3-----------3--------------------------|

E|-----13-13-----13-----0----8-8----8----0----10-10----10-------|
B|-----13-13-----13----------8-8----8---------10-10----10-------|
G|-12b-------12b----12b---7b-----7b---7b---9b-------9b----9b-2--|
D|--------------------------------------------------------------|
A|--------------------------------------------------------------|
E|--------------------------------------------------------------|

                    (*Harmônicos com alavanca v) 
E|---------------2---12-----------------------------------------|
B|---0h3---------3---12-----------------------------------------|
G|-2-----2-2-0---2---12-----------------------------------------|
D|-------------2-0---12-----------------------------------------|
A|--------------------------------------------------------------|
E|--------------------------------------------------------------|

   5:07
E|--------------------------------------------------------------|
B|--------------------------------------------------------------|
G|--------------------------------------------------------------|
D|-12h14h12h14h12h14h12h14h 12h14h12h14h12h14h12h14h 12h14h12h--|
A|--------------------------------------------------------------|
E|(^Guitarra limpa)---------------------------------------------|

  
E|--------------------------------------------------------------|
B|--------------------------------------------------------------|
G|--------------------------------------------------------------|
D|-14h12h14h12h14h 12h14h12h14h12h14h12h14h 12h14h12h14h12h14h--|
A|--------------------------------------------------------------|
E|--------------------------------------------------------------|

E|--------------------------------------------------------------|
B|--------------------------------------------------------------|
G|--------------------------------------------------------------|
D|-12h14h 12h14h12h14h12h14h12h14h 12h14h12h14h12h14h12h14h 12h-|
A|--------------------------------------------------------------|
E|--------------------------------------------------------------|

                         *Harmonica natural  5:18
E|--------------------------------------------------------------|
B|--------------------------------------------------------------|
G|-----------------------12-------------------------------------|
D|-14h12h14h12h14h12h14h-12----------------------------------12-|
A|---------------------------14-13-12-10-12------10-12-12/14----|
E|-------------------------------------------12-----------------|

E|--------------------------------------------------------------|
B|--------------------------------------------------------------|
G|-------14b-14-12-12-14----------------------------------------|
D|-14-----------------14-14--14-12------------------------------|
A|---------------------------------14-13-12----12-13-14-12h14h12|
E|----12------------------------------------15------------------|

E|--------------------------------------------------------------|
B|--------------------------------------------------------------|
G|--------------------------------------------------------------|
D|---------------------------------------------------------12h14|
A|h14h12h14h12h1412h14h12h1412h14h12h1412h14h12h1412h14h12------|
E|--------------------------------------------------------------|

E|--------------------------------------------------------------|
B|--------------------------------------------------------------|
G|--------------------------------------------------------------|
D|h12h14h12----------------12h14h12h14-12h14h12h14h12-----------|
A|----------12h14h12h14h12----------------------------12h14h12h-|
E|--------------------------------------------------------------|

E|--------------------------------------------------------------|
B|--------------------------------------------------------------|
G|--------------------------------------------------------------|
D|------12h14h12h14h12------------------------------------------|
A|14h12----------------12h14h12h14h12-10h12h10h12h10h12h10h12h10|
E|--------------------------------------------------------------|

E|--------------------------------------------------------------|
B|--------------------------------------------------------------|
G|--------------------------------------------------------------|
D|----------------------------------------------12h14h12h14h12--|
A|----------------10h12h10h12h10-12h14h12h14h12-----------------|
E|-10h12h10h12h10-----------------------------------------------|

E|------------------------------------------------------------12|
B|-------------------15---------------15-------------------12---|
G|-12----------12----14b-12-14--12-------14b-14-12-14--14b------|
D|-12--14\-/14----14---------------14---------------------------|
A|--------------------------------------------------------------|
E|--------------------------------------------------------------|

E|--------------------------------------------------------------|
B|-15h12-----------------12-15-12-------------------------------|
G|-------14-12----12-14b----------14-12----12-14-14h12h14--12---|
D|-------------14-----------------------14--------------------14|
A|--------------------------------------------------------------|
E|--------------------------------------------------------------|

E|--------------------------------------------------------------|
B|--------------------------------------------------------------|
G|--------------------------------------------------------------|
D|-14-12h14h12----12--------------------------------------------|
A|-------------14----14-13-14-13-12-13-12----12----------12-13--|
E|----------------------------------------15----15-12-15--------|
                                
                            (*Harmônicos com alavanca v) (*Alavanca ^)
E|-----------------------x-x-12---------------------------0-----|
B|-----------------------x-x-12---------------------------0-----|
G|----------12-14b-12----x-x-12---------------------------0-----|
D|----12-14-----------14-x-x-12---------------------------0-----|
A|-14--------------------x-x------------------------------------|
E|-----------------------x-x------------------------------------|

     5:47
E|-x--------------------------------------------x---------------|
B|-x--------------------------------------------x---------------|
G|-x--------------------------------------------x----12-14-12/14|
D|-x-12h14h12h14h12h14h12h14h12h14h12h14h12h14h-x-14------------|
A|-x--------------------------------------------x----10-12-10/12|
E|-x--------------------------------------------x-12------------|

E|--------------------------------------------------------------|
B|--------------------------------------------------------------|
G|-14-12-12/14-9-12-9-12/14-9-12-9-12/14-9-12-9-12/14-9-12-9-/15|
D|--------------------------------------------------------------|
A|-12-10-10/12-7-10-7-10/12-7-10-7-10/12-7-10-7-10/12-7-10-7-/13|
E|--------------------------------------------------------------|

E|--------------------------------------------------------------|
B|--------------------------------------------------------------|
G|-14-12-14-9-12/14-9-9-12/14-9-12-x-x-14\9-9-9-x-x-12-x-14-x-9-|
D|---------------------------------x-x----------x-x----x----x---|
A|-12-10-12-7-10/12-7-7-10/12-7-10-x-x-12\7-7-7-x-x-10-x-12-x-7-|
E|--------------------------------------------------------------|

                                          5:59
E|-------------------------------------------12-----------------|
B|-------------------------------------------12-12-12-12-12-----|
G|-15-14-12-14-9-x-12-x-14-12-x-14-12-x-x----12-12-12-14-12-----|
D|---------------x----x-------x-------x-x-14----14-14-14-14-14--|
A|-13-12-10-12-7-x-10-x-12-10-x-12-10-x-x-----------------------|
E|----------------------------------------12--------------------|

E|------------------------------------15b-15-12-12-15--/17-17-15|
B|---------------------15h17~-17h15~----------------------------|
G|--------------------------------------------------------------|
D|-14-/14-12----------------------------------------------------|
A|-----------14-13-12-------------------------------------------|
E|--------------------------------------------------------------|

E|-12-17-15-12--------19-17-19-17\15--------------------12------|
B|-------------15--17--------------------------------------15b--|
G|-----------------------------------14-12-14b-14-12------------|
D|---------------------------------------------------14---------|
A|--------------------------------------------------------------|
E|--------------------------------------------------------------|

E|-12-15b-15-12h15h12----12-------------------------------------|
B|--------------------14----15b-15-12-----------------------12--|
G|------------------------------------14b-14-12h14h12----12-----|
D|----------------------------------------------------14--------|
A|--------------------------------------------------------------|
E|--------------------------------------------------------------|

E|-12------------12---------------------------------------------|
B|----15b-----12-----------------------------------12-15-12-----|
G|--------14b-------14b-14-12----12----------12-14----------14--|
D|----------------------------14----14-12-14--------------------|
A|--------------------------------------------------------------|
E|--------------------------------------------------------------|

E|--------------------------------------------------------------|
B|-12-----------------------------------------------------------|
G|----14-12-14-12----12-----------------------------------------|
D|----------------14----14-12-14-12----12-----------------------|
A|----------------------------------14----14-13-14-13-12-13-12--|
E|--------------------------------------------------------------|

                                     (*Harmônicos com alavanca v)               
E|--------------------------------------------------------------|
B|--------------------------------------------------------------|
G|-------------------------------12-X-12------------------------|
D|-------------------------12-14----X-12------------------------|
A|----12----------12-13-14--------------------------------------|
E|-15----15-12-15-----------------------------------------------|

  (*Alavanca ^) 6:25
E|-0------------------------------------------------------------|
B|-0------------15b-15b~-15-15--15-12----------12---------------|
G|-0------------------------14b-14-12-14-12-14-12-14b-14-12-----|
D|-0----------------------------------14-12-14--------------14--|
A|-------------(^Guitarra distorcida)---------------------------|
E|--------------------------------------------------------------|

E|--------------------------------------------------------------|
B|--------15-15-15--------15-15--15-15-------12-15--12-15-15----|
G|-12-14b-------14b-------12-14b-14-12-------12-14b-12-14-14----|
D|------------------14-14--------------14-14--------------------|
A|--------------------------------------------------------------|
E|--------------------------------------------------------------|

               6:34             
E|------------------------------------------------------------0-|
B|-12----------12---------------------------------------------0-|
G|-12h14h12----12-----------------------------------------0-0-0-|
D|----------14----12h14-14----------------------------14\-2-2-2-|
A|-------------------------12-12-12h14-14----12-12-14-----2-2-2-|
E|----------------------------------------12--------------0-0-0-|

          6:39
E|-0------0------------------------------7-9-7h9h7----9---------|
B|------0--------------------------------7---------10---10-7----|
G|---2b-----0-2-2-2-0h2-0------------------------------------7h9|
D|------------------------2-0-2-2-------------------------------|
A|-------------------------------------x------------------------|
E|--------------------------------/7-7-x------------------------|

E|----------0----5-5----5-5----5-5----5-5---5-5-----------------|
B|----------0----5-5----5-5----5-5----5-5-8-5-5-----------------|
G|-7---7----0-7b-----7b-----7b-----7b-----------7-7b-0-2bh2h0-2b|
D|---9---9\-----------------------------------------------------|
A|--------------------------------------------------------------|
E|--------------------------------------------------------------|

E|-3-3----3----0----13-13-----13-----0----8-8----8----0----10-10|
B|-3-3----3---------13-13-----13----------8-8----8---------10-10|
G|-----2b---2b---12b------12b----12b---7b-----7b---7b---9b------|
D|--------------------------------------------------------------|
A|--------------------------------------------------------------|
E|--------------------------------------------------------------|

                            (*Harmônicos com alavanca v) (*Alavanca ^)
E|----10------------------2--12---------------------------0-----|
B|----10--------0h3-------3--12---------------------------0-----|
G|-9b----9b-2-2-----2-0---2--12---------------------------0-----|
D|------------------0-0-2-0--12---------------------------0-----|
A|--------------------------------------------------------------|
E|--------------------------------------------------------------|

   7:03
E|--------------------------------------------------------------|
B|-15b--15b-15b-15b-15-12-12h15-----0-15b-15---------------15---|
G|------------------------------14b----------14b-14-12-14b------|
D|--------------------------------------------------------------|
A|--------------------------------------------------------------|
E|--------------------------------------------------------------|

E|--------------------------------------------------------------|
B|-------------------------12----12-----------------------------|
G|-14b-14--14b-14-12-14-14----14----14b-12----------------------|
D|-----------------------------------------14-------12-14-12-14-|
A|--------------------------------------------12-14-------------|
E|--------------------------------------------------------------|

E|----------------|
B|----------------|
G|-12----12-14/16-|
D|----14----------|
A|----------------|
E|----------------|

E|-------15-17b-17-15h17h15----17h15----17h15-------------------|
B|-15-17--------------------17-------17-------17-15h17h15-------|
G|--------------------------------------------------------16----|
D|--------------------------------------------------------------|
A|--------------------------------------------------------------|
E|--------------------------------------------------------------|

E|-----------------------------------------------15-------------|
B|-17bh15-17--17-17bh15-----------------------------17----------|
G|----------------------16-14-16-17--16-17-16----------17----14-|
D|--------------------------------------------17----------------|
A|--------------------------------------------------------17----|
E|--------------------------------------------------------------|

                                          7:28
E|-------15-14-------------------------12-----15-15-----15-----0|
B|-15----------17-------------------13--------15-15-----15------|
G|----------------------------12-14-------14b-------14b----14b--|
D|----17----------------12-14-----------------------------------|
A|----------------12-14-----------------------------------------|
E|--------------------------------------------------------------|

E|-----13-13-----13-----0----9-9----9----0----10-10----10-------|
B|-----13-13-----13----------9-9----9---------10-10----10-------|
G|-12b-------12b----12b---7b-----7b---7b---9b-------9b----9b-2-2|
D|--------------------------------------------------------------|
A|--------------------------------------------------------------|
E|--------------------------------------------------------------|

                (*Harmônicos com alavanca v)
E|-------------2-12---------------------------------------------|
B|-0h3---------3-12---------------------------------------------|
G|-----2-2-0---2-12---------------------------------------------|
D|-----------2-0-12---------------------------------------------|
A|--------------(^Guitarra limpa)-------------------------------|
E|--------------------------------------------------------------|

E|--------------------------------------------------------------|
B|--------------------------------------------------------------|
G|--------------------------------------------------------------|
D|-------------------------12h14h12h14h12----------------12h14h-|
A|-12h14h12h14h12h14h12h14----------------12h14h12h14h12--------|
E|--------------------------------------------------------------|

E|--------------------------------------------------------------|
B|--------------------------------------------------------------|
G|--------------------------------------------------------------|
D|-12h14h12----------------12h14h12h14h12----------------12h14h-|
A|----------12h14h12h14h12----------------12h14h12h14h12--------|
E|--------------------------------------------------------------|

E|--------------------------------------------------------------|
B|--------------------------------------------------------------|
G|--------------------------------------------------------------|
D|12----------12h14h12----------12h14h12----------12h14h12------|
A|---12h14h12----------12h14h12----------12h14h12----------12h14|
E|--------------------------------------------------------------|

E|--------------------------------------------------------------|
B|--------------------------------------------------------------|
G|--------------------------------------------------------------|
D|----12h14h12----------12h14h12--------------------------------|
A|h12----------12h14h12----------14~----------------------------|
E|--------------------------------------------------------------|
Composição de Jimi Hendrix
Colaboração e revisão:
  • Liu Barros
6.221 exibições
    • ½ Tom
    • A
    • Bb
    • B
    • C
    • Db
    • D
    • Eb
    • E
    • F
    • F#
    • G
    • Ab
  • Adicionar à lista

    0 comentários

    Ver todos os comentários

    Conseguiu tocar?

    1 Tocaram 0 Ainda não

    Grave um vídeo tocando Little Wing e nos envie!

    00:00 / 00:00
    Outros vídeos desta música
    Repetir Qualidade Automático
    Outros vídeos desta música
    00:00 / 00:00
    Automático

    Cifra Club Pro

    Aproveite o Cifra Club com benefícios exclusivos e sem anúncios
    Cifra Club Pro
    Aproveite o Cifra Club com benefícios exclusivos e sem anúncios
    OK