Love Thing

Joe Satriani

Composição de: Joe Satriani
tom: E
[Primeira Parte]

E|----------------------------------------------------|
B|----------------------------------------------------|
G|----------------------------------------------------|
D|--------2/4\2---------------------------------------|
A|---\2----------2--2---------------------------------|
E|----------------------------------------------------|

E|----------------------------------------------------|
B|----------------------------------------------------|
G|----------------------------------------------------|
D|----------------------------------------------------|
A|---\2--4/6b7r6---/4p2--2----------------------------|
E|----------------------------------------------------|

E|----------------------------------------------------|
B|----------------------------------------------------|
G|----------------------------------------------------|
D|--------2/4\2---------------------------------------|
A|---/2----------2/4\2--2/7---------------------------|
E|----------------------------------------------------|

E|----------------------------------------------------|
B|----------------------------------------------------|
G|----------------------------------------------------|
D|-/6--6/7--7/11--11\9-9------------------------------|
A|----------------------------------------------------|
E|----------------------------------------------------|

[Segunda Parte]

E|----------------------------------------------------|
B|-/12--10-9\7-9b10-9-7--9\--5~-----------------------|
G|----------------------------------------------------|
D|----------------------------------------------------|
A|----------------------------------------------------|
E|----------------------------------------------------|

E|----------------------------------------------------|
B|-7b9---7b9r7p5--------------------------------------|
G|----------------6b76p4---4~-------------------------|
D|-----------------------6----------------------------|
A|----------------------------------------------------|
E|----------------------------------------------------|

E|-------------------------------------------7--------|
B|-/12--10-9\7-9b10-9-7\5-------5---7b9--7b9---b9r7p5-|
G|--------------------------4h6-----------------------|
D|----------------------------------------------------|
A|----------------------------------------------------|
E|----------------------------------------------------|

E|-7/9--9/11--7---------------------------------------|
B|----------------------------------------------------|
G|----------------------------------------------------|
D|----------------------------------------------------|
A|----------------------------------------------------|
E|----------------------------------------------------|

[Terceira Parte]

E|----12-14-12----------------------------------------|
B|-12----------12-12----------------------------------|
G|----------------------------------------------------|
D|------------------------\9--11/13b14r13---\11p9--9~-|
A|----------------------------------------------------|
E|----------------------------------------------------|

E|----------------------------------------------------|
B|----------------------------------------------------|
G|----------------------------------------------------|
D|--------2/4\2---------------------------------------|
A|---\2----------2/4\2--2/7---------------------------|
E|----------------------------------------------------|

[Quarta Parte]

E|---17b19r17-16-14~----------14-16-------------------|
B|-------------------------17-------------------------|
G|----------------------------------------------------|
D|----------------------------------------------------|
A|----------------------------------------------------|
E|----------------------------------------------------|

E|-17b19---17b19r17-16-14~-------14-------------------|
B|----------------------------17------16b17r16----14~-|
G|---------------------------------------------16-----|
D|----------------------------------------------------|
A|----------------------------------------------------|
E|----------------------------------------------------|

E|-17b19r17-16-14~-----14-----14-----14-16------------|
B|------------------17-----17-----17-------17-14------|
G|----------------------------------------------------|
D|----------------------------------------------------|
A|----------------------------------------------------|
E|----------------------------------------------------|

E|---------14-16-19-14-16----14-----------------------|
B|---14-17----------------17----14-14-17~-------------|
G|----------------------------------------------------|
D|----------------------------------------------------|
A|----------------------------------------------------|
E|----------------------------------------------------|

E|------------------------------9---------------------|
B|-14b16b17r14----------12b14~----9-12----------------|
G|-------------13~---------------------11b13r11-9-11--|
D|----------------------------------------------------|
A|----------------------------------------------------|
E|----------------------------------------------------|

E|----------------------------------------------------|
B|----------------------------------------------------|
G|-9-11b13r11p9---------------------------------------|
D|--------------11p9----------------------------------|
A|-------------------11\9p7-9/11p9/11~----------------|
E|----------------------------------------------------|

E|-12b14-14b12--11b12r11b12r11------------------------|
B|-----------------------------14-12-14--12-12b14r12~-|
G|----------------------------------------------------|
D|----------------------------------------------------|
A|----------------------------------------------------|
E|----------------------------------------------------|

E|----------------------------------------------------|
B|-------17-19b-----------17--19-17-20b-19b20r19-17~--|
G|-16-18------------16-18-----------------------------|
D|----------------------------------------------------|
A|----------------------------------------------------|
E|----------------------------------------------------|

E|----------------------19-------19-------19-------19-|
B|-19b22-------17-19b22----19b22----19b22----19b22----|
G|-------16-18----------------------------------------|
D|----------------------------------------------------|
A|----------------------------------------------------|
E|----------------------------------------------------|

E|-------19-------------------------------------------|
B|-19b22----19b22-b22-b22-b22-b22-b22-b22-b22-b22r19--|
G|----------------------------------------------------|
D|----------------------------------------------------|
A|----------------------------------------------------|
E|----------------------------------------------------|

E|----------------------------------------------------|
B|-17-19-17-------------------------------------------|
G|----------18-\16-16~--------------------------------|
D|----------------------------------------------------|
A|----------------------------------------------------|
E|----------------------------------------------------|

[Quinta Parte]

E|----------------------------------------------------|
B|--/12-12~-10-9\7-9b10r9-7~-9\-5~--------------------|
G|----------------------------------------------------|
D|----------------------------------------------------|
A|----------------------------------------------------|
E|----------------------------------------------------|

E|----------------------------------------------------|
B|-5-0-4-5--0-4-5--0-4-5--0-4-5---0-4-5-0-4-5-0-4-5---|
G|----------------------------------------------------|
D|----------------------------------------------------|
A|----------------------------------------------------|
E|----------------------------------------------------|

E|----------------------------------------------------|
B|-0-4-5-0-4-5--0-2h4p2p0-2h4p2p0---------------------|
G|--------------------------------2/4~----------------|
D|----------------------------------------------------|
A|----------------------------------------------------|
E|----------------------------------------------------|

E|----------------------------------------------------|
B|-/12-12--10-9\7-9b10r9-7-9---5-4-5/16-16b17-b17~----|
G|----------------------------------------------------|
D|----------------------------------------------------|
A|----------------------------------------------------|
E|----------------------------------------------------|

E|-------------------14-16----14----------------------|
B|-16b17r16-17-16-17-------17----16-17-14-16----14----|
G|-------------------------------------------16----16-|
D|----------------------------------------------------|
A|----------------------------------------------------|
E|----------------------------------------------------|

E|----------------------------------------------------|
B|----------------------------------------------------|
G|-13-14-16-13-14----13-------------------------------|
D|----------------16----14-16-14-13-------------------|
A|----------------------------------14~---------------|
E|----------------------------------------------------|

[Sexta Parte]

E|-17b19-b19-17-16-14--16b17r16--14-16----------------|
B|----------------------------------------------------|
G|----------------------------------------------------|
D|----------------------------------------------------|
A|----------------------------------------------------|
E|----------------------------------------------------|

E|----------------------------------------------------|
B|-16b17r16b17r16b17r16b17r16-------------------------|
G|----------------------------------------------------|
D|----------------------------------------------------|
A|----------------------------------------------------|
E|----------------------------------------------------|

E|-17b19--21b23b24r21-19~--19\17-16h17p16\14--14------|
B|----------------------------------------------------|
G|----------------------------------------------------|
D|----------------------------------------------------|
A|----------------------------------------------------|
E|----------------------------------------------------|

E|--17b19-b19-17-16-14--16b17-16-14-------------------|
B|-----------------------------------17-------17------|
G|--------------------------------------16h18---------|
D|----------------------------------------------------|
A|----------------------------------------------------|
E|----------------------------------------------------|

E|--------------19-----------------19b21--21b23--19~--|
B|-19b21--19b21--------19b21r19p17--------------------|
G|----------------------------------------------------|
D|----------------------------------------------------|
A|----------------------------------------------------|
E|----------------------------------------------------|

[Final]

E|----------------------------------------------------|
B|----------------------------------------------------|
G|----------------------------------------------------|
D|--------2/4\2---------------------------------------|
A|---\2----------2--2---------------------------------|
E|----------------------------------------------------|

E|----------------------------------------------------|
B|----------------------------------------------------|
G|----------------------------------------------------|
D|----------------------------------------------------|
A|---\2--4/6b7r6---\4p2--2----------------------------|
E|----------------------------------------------------|

E|----------------------------------------------------|
B|----------------------------------------------------|
G|----------------------------------------------------|
D|--------2/4\2---------------------------------------|
A|---\2----------2/4\2--2/7---------------------------|
E|----------------------------------------------------|
Página 1 / 1

Letras e título
Acordes e artista

resetar configurações
OK