Notificações Amigos pendentes

      Johann Pachelbel

      Canon In D

      113.797 exibições
      Tom: G
      (afinação D)
      
       D A Bm F#m G  D  G  A  
      
      (repita a sequencia abaixo durante toda musica)
      
      (violão base)
      
      E|-------2-----------------------------------------------------------|
      B|-----3---------2--------3-------2--------0-------3--------3-------2|
      G|---2---------2--------4-------2--------0-------2--------4-------2--|
      D|-0---------2--------4-------4--------0-------4--------5-------2----|
      A|---------0--------2-----------------------------------------0------|
      D|--------------------------4--------5-------0--------5--------------|
      
      
      (violão solo)
      (deixe soar cada acorde uma vez)
      
      -10----9-----7---5------------------
      -10---10-----7---7----8----7----8---
      -11---11-----7---7----7----7----7---
      ----------------------9----7----9---
      ------------------------------------
      ------------------------------------
      
      
      ----------------------------------------------|
      --10---10---10---12---10---8----7----8----10--|
      --9----11---11---11---11---7----7----7----9--9|
      --11---12---11---12---11---9----7----9----11--|
      ----------------------------------------------|
      ----------------------------------------------|
      
      
      (riff 1)
      
      -5--2-3-5-2-3-5-----------2-3---2-----2-----2----------------|----------------
      --------------------2-3-5---------3-5---3-5-----------2-3-5--|--3-----3-3-5-3-
      ----------------2-4-------------------------------2-4--------|----4-6---------
      ----------------------------------------------4-5------------|----------------
      -------------------------------------------------------------|----------------
      -------------------------------------------------------------|----------------
      
      
      ----------------|----3-2--------------------2-3--|--5--2-3-5-2-3-5--------3---
      -------------2--|--------5-3---2------2-3-5------|------------------2-3-5-----
      ---------2-4----|--4---------4----2-4------------|----------------------------
      ---2-4-5--------|--------------------------------|----------------------------
      -5--------------|--------------------------------|----------------------------
      ----------------|--------------------------------|----------------------------
      
      
                               (final do riff 1)
      
      -2-----2-----2----------------||-------------------------|----3-2-------------
      ---3-5---3-5-----------2-3-5--||-3--3-5-3-------------2--|--------5-3---2-----
      -------------------2-4--------||------------------2-4----|--4---------4---2-4-
      ---------------4-5------------||------------2-4-5--------|--------------------
      ------------------------------||----------5--------------|--------------------
      ------------------------------||-------------------------|--------------------
      
      
      -------2-3--|--2--2-3-2--------------------------|--3-2-3-2------------3--2---
      -2-3-5------|-----------5-3--3--5-2-2------------|----------5----2-3-5--------
      ------------|-------------------------4---2---2--|------------4---------------
      ------------|-------------------------------5----|----------------------------
      ------------|------------------------------------|----------------------------
      ------------|------------------------------------|----------------------------
      
      
      -10-9-7----9-10--9---9-7---|--3-2-3--2---2------------------------------2----
      -------10---------10----10-|-----------5---5-3---------------------2-3-5------
      ---------------------------|--------------------6-4-6-4--------2-4------------
      ---------------------------|-----------------------------5-4-5----------------
      ---------------------------|--------------------------------------------------
      ---------------------------|--------------------------------------------------
      
      
      -2-3-2-------------3-2-3-2-----------|-----------------|------9-7-5-3---------
      -------5-3-2--3------------5-3--2-3--|--2-3-2-3-2-3----|----10--------5-------
      ----------------4--------------------|--------------2--|--11------------------
      -------------------------------------|-----------------|----------------------
      -------------------------------------|-----------------|----------------------
      -------------------------------------|-----------------|----------------------
      
      
      -2--3-2---2----------7-10-9-----|--7----2-5-2-5----3-5-3---5------------------
      -3------5---5-2----7-------10-7-|--8--8----------3-------5---5----------------
      -2---------------7--------------|--7------------------------------------------
      --------------------------------|---------------------------------------------
      --------------------------------|---------------------------------------------
      --------------------------------|---------------------------------------------
      
      
      -5--2-3-5-2-3-5-----------2-3--2------2-----2---------------------------------
      --------------------2-3-5---------3-5---3-5-----------2-3-5-------------------
      ----------------2-4-------------------------------2-4-------------------------
      ----------------------------------------------4-5-----------------------------
      ------------------------------------------------------------------------------
      ------------------------------------------------------------------------------
      
      
      ---------------------------------------------------|--2-2-3-2-------3-2-3-5-2-
      -3--5-3--------------3-2---------------------------|--3-3-----5-3-------------
      -----------------2-4-----4-2-----------------------|--2-2---------------------
      -----------2-4-5-------------5--4-5-4-2---2--------|--------------------------
      ---------5------------------------------5---5-4-5--|--------------------------
      ---------------------------------------------------|--------------------------
      
      
      -3---7-10-10-7-9-10-12-9-|-121412-10----7-10-10p9-9--7--------10-9-10-12-10-9-
      -----8-------8-----------|------------10---------------10-8-7-----------------
      -----7-------7-----------|----------------------------------------------------
      -------------------------|----------------------------------------------------
      -------------------------|----------------------------------------------------
      -------------------------|----------------------------------------------------
      
      
      ----9--|--5-5-5-5/3--3-3-3/2------7---9-10-9-10-12-10-10|--10-9--------9-10---
      -12----|----------------------7h8---8------10-----------|--------10-12-----12-
      -------|-----------------------------------9------------|---------------------
      -------|------------------------------------------------|---------------------
      -------|------------------------------------------------|---------------------
      -------|------------------------------------------------|---------------------
      
      
      -9-12-9-----3-5-7-9?-10-9-7-5-3-5-3------2------|-----------------------------
      -10-----10--3--------10-------3-----3--5---3-5--|-----------------------------
      -9----------5--------11-------5-----------------|--repete riff 1, e toque:----
      ------------------------------------------------|-----------------------------
      ------------------------------------------------|-----------------------------
      ------------------------------------------------|-----------------------------
      
      
      -----------------------------------------2------------------------------------
      --3---2---1-----------2-5---3---3---2----3------------------------------------
      --------4---------2-4--------------------2------------------------------------
      --------------4-5------------------------0------------------------------------
      ------------------------------------------------------------------------------
      ------------------------------------------------------------------------------
      

      Comentários 15

      140 .
      140 cancelar

      conseguiu tocar?

      • •••
      Douglas Eufrauzino Souza15.766 visualizações
      ver covers de outras músicas »
      0:00 / 0:00

      Capítulos

        1 versão de partiturasformatodownloadscontribuição
        play/pausefechar subir/descer velocidade
        6ª corda E5ª corda A4ª corda D3ª corda G2ª corda B1ª corda E
          acordes
          publicidade
          fechar
          ok