Cifra Club

Canon In D

Johann Pachelbel

Cifra: Principal
exibições 131.896
Tom: C
Base inicial pode ser feita no violão

E|-10----9---7---5---------------------------------------------------------|
B|-10---10---7---7---8---7---8---10----------------------------------------|
G|-11---11---7---7---7---7---7---9-----------------------------------------|(2x)
D|-------------------9---7---9---11----------------------------------------|
A|-------------------------------------------------------------------------|
D|-------------------------------------------------------------------------|

começo
 deixe as notas soarem um pouco 
E|-2--0---------------------0-0h2-----2------------------------------------|
B|------3--2--0-----0--2--3----------3-----2----3----2----0----3---0-------|
G|---------------2------------------2-----2----4----2----0--2-2---0--------|
D|---------------------------------0-----2----4----4----0----0---0---------|
A|--------------------------------------0----2-----------------------------|
D|------------------------------------------------2----3--------3----------|

E|-----0-0h2------0-3-2-0-----0-----2-5---3-2-0-3-2-0-----------------0----|
B|-2-3---------3--2-------3-----3-2-------------------3-2-0---0-3-2-3---3--|
G|-----------2----2---------4-------------------------------2--------------|
D|----------------2--------------------------------------------------------|
A|----------------0--------------------------------------------------------|
D|-------------------------------------------------------------------------|

E|----2-2-0----------7-------5-----7------9--7-5/10--10--------------------|
B|--3-3-3-2---3-3----8---0-2-3-2-3-8-8---10--------------------------------|
G|--2-----2---4-4-2----0--------------7------------------------------------|
D|--0-----2---4-4-4--------------------------------------------------------|
A|--------0--2----4--------------------------------------------------------|
D|----------------2--------------------------------------------------------|

E|--2-3-5-2-3-5-----------2-3-2------2------------------------------------------|
B|------------------2-3-5--------3-5----------0--------3-2-3-0-3-2-0------------|
G|--------------2-4-----------------------0-2---2-0-2----------------2-0-2-0----|
D|--------------------------------------4------------------------------------4--|
A|------------------------------------------------------------------------------|
D|------------------------------------------------------------------------------|

E|----------------------------0---0-2-3--5-2-3-5-2-3-5-----------2-3-2----------|
B|-------2-3-0--3-2-3-2-0-2-3---3--------------------------2-3-5--------3-5-----|
G|-0-2-4-----------------------------------------------2-4--------------------0-|
D|--------------------------------------------------------------------------4---|
A|------------------------------------------------------------------------------|
D|------------------------------------------------------------------------------|

E|----------------------------------------------------------------0---2-3--5----|
B|---0--------3-2-3-2-0-3-2-0-----------------2-3-0-3-2-3-2-0-2-3---3------2----|
G|-2---2-0-2------------------2-0-2-0---0-2-4------------------------------2----|
D|------------------------------------4------------------------------------2----|
A|-------------------------------------------------------------------------0----|
D|------------------------------------------------------------------------------|

E|------2/5--5-3-2---2-0--------5-3---5/7-5-3------------------------5-2-5/7----|
B|--3--------------3-----3-0-3----------------3-2-3-0-2----------3--------------|
G|--2-2------------------0---2------0---------2---------2-0----4---4------------|
D|--0------------------------0----------------0---------2----4------------------|
A|------------------------------------------------------0----2------------------|
D|------------------------------------------------------------------------------|

E|-3-2-0-3-2-0-----------------0----------5-5-7-5-3-2-----2-2-3-2---------------|
B|-------------3-2-0---0-3-2-3---3--3---3-7-7-8-7-5-3---3---------5-3-2-0-2-3---|
G|-------------------2--------------2-2---------------4-------------------------|
D|----------------------------------0-------------------------------------------|
A|------------------------------------------------------------------------------|
D|------------------------------------------------------------------------------|

E|------------------------------------5-5-7-5-3-2-----2-2-3-2-------------------2----|
B|--------3-3-2-0-1-2-------2--3---3--7-7-8-7-5-3---3---------5-3-2-0-2-3-----3------|
G|------2---0-------------2----2-2----------------4-------------------------2--------|
D|----0-----------------2------0------------------------------------------0----------|
A|--0-----------------0--------------------------------------------------------------|
D|-----------------------------------------------------------------------------------|

E|------------------------------------------------------------------------------|
B|--3-2-0-2-3--------------------3-333333-------(15harmonic)--------------------|
G|-------------2-0---------------2----------------------------------------------|
D|-----------------4-2h4p2---0h2-0----------------------------------------------|
A|-------------------------4-----0----------------------------------------------|
D|------------------------------------------------------------------------------|
Acordes para:
    Colaboração e revisão:

    0 comentários

      mostrar mais comentários

      Conseguiu tocar?

      14tocaram0ainda não

      Grave um vídeo tocando Canon In D e mande pra gente!

      00:00 / 00:00
      outros vídeos desta música
      repetirqualidadeautomática
      Outro vídeos desta música
        00:00 / 00:00
        automática
        OK