Cifra Club

Aprenda

Bourreé

Johann Sebastian Bach

Cifra: Principal (violão e guitarra)
Tom: G
E|--0--2------3----2--0-------0--2----------------0----------|
B|-----------------------4-------------0----2--4-------3--1--|
G|-----------------------------------------------------------|
D|-----------------------------------------------------------|
A|-----------------0--0--2----0------------------------------|
E|--3--2------0------------------------3----2-----0----2-----|

E|----------------------------------------------0--2-----3----2--0-------0--2--|
B|--0-------------------------0-------------------------------------4----------|
G|-------2--0-------0--2---------2--0------------------------------------------|
D|-------------4-----------------------4--2------------------------------------|
A|-------0-----2----0---------------2-------------------------0-----2----0-----|
E|--3-------------------------3-----------0--2--3--2-----0---------------------|

E|-------------0-------------------------------------------------------0--2--|
B|--0----2--4-------3--1------0----------------------------------------------|
G|---------------------------------2--0--------0----0-----0------------------|
D|---------------------------------------4-2-4---4--------0------------------|
A|---------------------------------3-----5-------5--------2------------------|
E|--3----2-----0----2---------3---------------------------3------------3--2--|

E|-----------------------------------------3--------0---------------------|
B|---------------0---------3-------1--0-------3-------------3--1----------|
G|--0---------------0-----------2------------------------4----------4--2--|
D|--0---------------------------0-----------------------------------0-----|
A|--2--------------------------------------2--------3----------0----------|
E|--3------------3---------2----------3------------------4----------------|

E|-----------------------------------------------------------3-----0----------|
B|----------0--1----0--------------------------3--------0-------3----------3--|
G|--1----2-------------2------2-------------------2---------------------4-----|
D|--2----------2-------------------------------0------------------------------|
A|-------0--------------------0--2--0------------------------2-----3----------|
E|------------------0------------------3--2-------------3---------------4-----|

E|-------5-----2-------0----------------------------------------------------7-----|
B|--1-------5-------2---------3----2--0--------------0-----0-------------------7--|
G|---------------------------------------4-3-4-3-4-3------------------------------|
D|-------------0-------------------2-----4-----------------------------1----------|
A|--0----4----------1---------2----------------------------2--1--2--4-------------|
E|-----------------------------------------------2--------------------------7-----|

E|-------------5-------3------2----0-----3-------1-----0----5--0--2-------0--|
B|--9----7--5-------5-----------------3-------3------------------------2-----|
G|---------------------------------------------------------------------------|
D|----------------------------0----------------------------------------------|
A|--7----5-----4-------------------3-----2-------------3----2-----0----------|
E|------------------5-------------------------3------------------------2-----|

E|-------------------0-----------------------------------------------------------|
B|--4-------------------0------1-----3-----0-----1--------------0----------------|
G|-------4------------------------------2-----------0-----2-----------0----------|
D|--------------------------------2--4--------1--2-----------------4-------4--2--|
A|--2-------3--2--0------------0-----------------------------4--6----------0-----|
E|-------------------4---------------------3--------------2-----------0----------|

E|----------------------------------------------------------------------|
B|--------------------------------------------0-------------------------|
G|-------------0----0----------------------------0----------------------|
D|--1----2--4-----4---4-2-4------2---------------------2----------------|
A|--2----0-----2---------------------------------------2----------------|
E|-------------------------------0------------3--------0----------------|

Composição de Bach
Colaboração e revisão:
  • douglas baamonde
  • Cava Cava
  • Taino Vieira
42.966 exibições
    • ½ Tom
    • A
    • Bb
    • B
    • C
    • Db
    • D
    • Eb
    • E
    • F
    • F#
    • G
    • Ab
  • Adicionar à lista

    0 comentários

    Mostrar mais comentários
    00:00 / 00:00
    outros vídeos desta música
    repetir qualidade Automático
    Outros vídeos desta música
    00:00 / 00:00
    Automático

    Cifra Club Pro

    Aproveite o Cifra Club com benefícios exclusivos e sem anúncios
    7 dias grátis
    Cifra Club Pro
    Aproveite o Cifra Club com benefícios exclusivos e sem anúncios
    7 dias grátis
    OK