Cifra Club

Aprenda

The Will To Death

John Frusciante

Cifra: Principal (violão e guitarra)
tom: E
Intro: E B F#m A (E B F#m) (2x)

E                   B      F#m
And they're thought to be lies
A      E        B      F#m  A
But we saw them  (saw them)
E               B        F#m
We looked right in their eyes
A     E       B       F#m  A
Right at them   (at them)
E               B        F#m
Pinning space to the world
A       E         B         F#m  A
We're slaughtered  (slaughtered)
E           B      F#m
Not a sound to be heard
A     E     B    F#m
We're awful   (awful)
F#m
And have you seen
         E
How they run
     B
Out of gas
      F#m
They beat the pain
      E           B
They sing in the rain
F#m
Endless and formless
      E      B
They fly to the end
     F#m
And back to the
E          B
beginning again
E             B    F#m
Have you put them aside
A     E            B      F#m   A
Your crazy thoughts and dreams
E             B      F#m
No they're a part of me
A         E      B    F#m    A
And they all mean one thing
E                 B       F#m
The Will To Death is what keeps me alive
A         E        B        F#m  A
It's one step away   (step away)
E
Limitations are set
B     F#m          A     E       B        F#m
Only then can we go all the way (all the way)
F#m                        E         B
And have you seen how the cars when they pass
      F#m
They come your way
               E       B
Then they're speeding away
F#m                     E     B
Coming to you and then going away
        F#m                   E         B
But for them nothing changed (nothing changed)

       C#m
Final: Uhhhhh... (Vocalização)
       E B F#m A
       E B F#m
       E B F#m A
       E B F#m
       E B F#m A
       E B F#m
       E B F#m A
         E B F#m
E|--------------------------------------------------------------------|
B|--12--10--9--------9--12--10--9---------9--10--9--------------------|
G|-------------9--11----------------9--11--------------9--9--9--11----|
D|--------------------------------------------------------------------|
A|--------------------------------------------------------------------|
E|--------------------------------------------------------------------|

E|----------------------------------------------------------------------|
B|--12--10--9--------9--12--10--9---------9-------------------9---------|
G|-------------9--11----------------9--11------11---9--8h9------9-------|
D|----------------------------------------------------------------------|
A|----------------------------------------------------------------------|
E|----------------------------------------------------------------------|

E|------9------------------9-----------------9-------------------------|
B|--12-----12--10--9--12-----12--10--9----12-----12--10--9--10---------|
G|---------------------------------------------------------------------|
D|---------------------------------------------------------------------|
A|---------------------------------------------------------------------|
E|---------------------------------------------------------------------|

E|----------------------------------------------------------------|
B|--9--10--9--------9--10--9---------9----------------------------|
G|-------------11--9------------11--9----9 --------9/11-----------|
D|---------------------------------------------11-----------------|
A|----------------------------------------------------------------|
E|----------------------------------------------------------------|
Composição de John Frusciante
Colaboração e revisão:
  • karlo
  • Diego Hawk
  • Rodrigo Ficinski
38.572 exibições
    • ½ Tom
    • A
    • Bb
    • B
    • C
    • Db
    • D
    • Eb
    • E
    • F
    • F#
    • G
    • Ab
  • Adicionar à lista

    0 comentários

    Ver todos os comentários
    00:00 / 00:00
    Outros vídeos desta música
    Repetir Qualidade Automático
    Outros vídeos desta música
    00:00 / 00:00
    Automático

    Cifra Club Pro

    Aproveite o Cifra Club com benefícios exclusivos e sem anúncios
    Cifra Club Pro
    Aproveite o Cifra Club com benefícios exclusivos e sem anúncios
    OK