Do You Know Me

John Mayer

Composição: John Mayer
Tom: D
 Form a D on the 9th fret and use your pinky to reach the 12th fret of the B string
E|---------9-------------------------| 
B|-------------10-------12--10----12-|
G|------9----9-----9-----------9-----|
D|----0--------------0---------------|
A|-----------------------------------|
E|-----------------------------------| x4

Verse: 

    "It's just the strangest thing.... 
E|----------------------------------| 
B|----7h8--7------------------------|
G|--------------7---9---------7-----|
D|-----------------------9----------|
A|----------------------------------|
E|----------------------------------|

   "I've seen your face somewhere. 
E|----------------------------------| 
B|----7h8--7------------------------|
G|--------------7---9---------------|
D|-----------------------9----7-----|
A|----------------------------------|
E|----------------------------------|

Intro x 2 
Verse x 2 
Intro x 2 

Chorus: 

"Do you know me.........."                                        "At all?" 
E|--------3-----3-----3-----3-----3---------3-----3-----3-----3-----3--| 
B|---------5-----5-----5-----5-----5---------5-----5-----5-----5-------|
G|--4-------4-----4-----4-----4-----4-5-------5-----5-----5-----5------|
D|---------------------------------------------------------------------|
A|---------------------------------------------------------------------|
E|---------------------------------------------------------------------|

Little riff in between 
E|-----------------------------------| 
B|-----------------------------------|
G|--7-h9p7/5/4-5--4/2p0----0--2------| 
D|---------------------04------------|
A|-----------------------------------|
E|-----------------------------------| X2

Chorus x2 
Intro x 4 
Verse x 2 
Intro x 2 
Verse x 2 
Intro x 2 
Chorus x 4 

Outro x4 is basically the intro again. It's a little different but it's not really worth  
trouble.
Página 1 / 1

Letras e título
Acordes e artista

resetar configurações
OK