Cifra Club

Aprenda

Edge Of Desire

John Mayer

Cifra: Principal (violão e guitarra)
tom: A
(riffs - main guitar)

(intro/verses) A D9 Bm E A

            (x2)                           (x2)
E|-------------------------|---------------------------------|
B|-------------------------|---------------------------------|
G|-------------------6-----|-------------9------------11-9---|
D|-----6---9-6---------9-7-|-------11------11-------9------12|
A|---7---7-------7-9-------|----12----12---------12----------|
E|-5-----------5-----------|-10---------------10-------------|

E|-------------------------|-----------------------------------|
B|-------------------------|----10---9-------------------------|
G|---------7-------6/7-----|-------------11--9-----------------|
D|-----7-----9---------9---|--9----9---9--------9--12-11--9----|
A|---9---9-------9-------9-|--------------------------------12-|
E|-7-----------7-----------|-0---------------------------------|

E|-------------------------|------------------------------|
B|-------------------------|------------------------------|
G|-------------------6-----|--------------7---6---4-------|
D|-----6---9-6---------9-7-|-----6---9-6----7---7---7-----|
A|---7---7-------7-9-------|---7---7----------------------|
E|-5-----------5-----------|-5----------------------------|

(verse 1 - intro riff)

A
Young and full of running
        D9
Tell me where's that taking me?
       Bm           E           A
Just a great figure 8 or a tiny infinity
A
Love is really nothing
      D9
But a dream that keeps waking me
              Bm
For all of my trying
                 E
You still end up dying
           A
How can it be?

(chorus) D9 A
          x4            x4
E|-9/10------------|-------------|
B|------12---10----|---5---5-----|
G|---------11--11--|-6---7---6---|
D|-----------------|-----------7-|  (4X tudo)
A|-----------------|-------------|
E|-----------------|-------------|

D9                                                   A
Don't say a word, just come over and lie here with me
D9                                                   A
'Cause I'm just about to set fire to everything I see
D9                                                   A
I want you so bad I'll go back on the things I believe
D9                                                    A
There I just said it, I'm scared you'll forget about me

(verse 2 - same riff of the intro)
A
So young and full of running,
        D9
all the way to the edge of desire
          Bm                      E
Steady my breathing, silently screaming,
           A
"I have to have you now"
A
Wired and I'm tired
           D9
Think I'll sleep in my clothes on the floor
           Bm                        E
Maybe this mattress will spin on its axis
               A
and find me on yours

(chorus - also with riff)
D9                                                   A
Don't say a word, just come over and lie here with me
D9                                                   A
'Cause I'm just about to set fire to everything I see
D9                                                   A
I want you so bad I'll go back on the things I believe
D9                                                    A
There I just said it, I'm scared you'll forget about me

 (bridge) A5  A F#m D9 A
E|------------------|
B|------------------|
G|-6-7-9-7-6--------|
D|-----------7------|
A|------------------|
E|------------------|

(solo) A F#m D9 E F#m D9 A  A

    (2x)                                                                 (2X)
E|--------|----------------------|-----------------------|-(9)-(10)-(12)-(12b14)--(12)-(12)-----|
B|-12b14~~|-12b14r12r14r12b14~~~~|--10-12-12b14b14-12-12~|--10--12---14---14b15----14---14------|
G|--------|----------------------|-----------------------|--------------------------------------|
D|--------|----------------------|-----------------------|--------------------------------------|
A|--------|----------------------|-----------------------|--------------------------------------|
E|--------|----------------------|-----------------------|--------------------------------------|

E|------------------------12-------9-10-12-14b16r14-----17~~----------|
B|-12b14r12----10~--12b14----12b14-------------------17---------------|
G|----------11--------------------------------------------------------|
D|--------------------------------------------------------------------|
A|--------------------------------------------------------------------|
E|--------------------------------------------------------------------|
b: bend; r: release; ~: vibrato; (): ghost note

(chorus - also with riff)
D9                                                   A
Don't say a word, just come over and lie here with me
D9                                                   A
'Cause I'm just about to set fire to everything I see
D9                                                   A
I want you so bad I'll go back on the things I believe
D9                                                    A
There I just said it, I'm scared you'll forget about me

( A )
Composição de John Mayer
Colaboração e revisão:
  • André Selvaggio
35.349 exibições
    • ½ Tom
    • A
    • Bb
    • B
    • C
    • Db
    • D
    • Eb
    • E
    • F
    • F#
    • G
    • Ab
  • Adicionar à lista

    0 comentários

    Ver todos os comentários

    Conseguiu tocar?

    13 Tocaram 1 Ainda não

    Grave um vídeo tocando Edge Of Desire e nos envie!

    00:00 / 00:00
    Outros vídeos desta música
    Repetir Qualidade Automático
    Outros vídeos desta música
    00:00 / 00:00
    Automático

    Cifra Club Pro

    Aproveite o Cifra Club com benefícios exclusivos e sem anúncios
    Cifra Club Pro
    Aproveite o Cifra Club com benefícios exclusivos e sem anúncios
    OK