Gravity

John Mayer

Composição de: John Mayer
tom: G
Afinação: C G D G B E

[Intro] G  C7M  G  C7M

[Tab - Intro]

[Parte 01 De 04]
E|----------------------------x---x--------------------|
B|----8-8-10/12-10h12~--8---8-x-8-x-8---8-8------------|
G|-/9-------------------7h9-7-x-9-x-7---7-7------------|
D|----------------------0---0-x-0-x-7h9-9-9------------|
A|--------------0-------0---0-x-0-x-0---0-0------------|
E|-----------------------------------------------------|
                        ↓   ↓ ↑ ↓ ↑ ↓   ↑ ↓

Parte 02 de 04
E|-----------------------------------------------------|
B|-----8-8-10/12-12p10-10~--10-10-10--0--1/3\1--1-1----|
G|-7/9-----------------------0--0--0--0--2/4\2--2-2----|
D|---------------------------0--0--0--0--2/4\2--2-2----|
A|---------------------------------------0-------------|
E|---------------0-------------------------------------|
                             ↓  ↑  ↓  ↑  ↓      ↓ ↑

Parte 03 de 04
E|-----------------------------------------------------|
B|----8-8-10/12-10h12~--10-10-10-10--3-5-0-------------|
G|-/9--------------------0--0--0--0--4-4-4-------------|
D|-----------------------0--0--0--0--5-5-5-------------|
A|--------------0--------0--0--0--0--0-----------------|
E|-----------------------------------------------------|
                         ↓  ↑  ↓  ↑  ↓ ↓ ↓

Parte 04 de 04
E|-----------------------------------------------------|
B|-----8-8-10/12-12\10p8-8~----------10~---------------|
G|-4/9-----------------------0-0-0-9-----0-0-0-0-------|
D|---------------------------0-0-0-------0-0-0-0-------|
A|-----------------------------------------------------|
E|---------------0-------------------0-----------------|
                             ↓ ↑ ↓       ↓ ↑ ↓ ↑

[Primeira Parte]

  G                  C7M
Gravity is working against me
      G                        C7M
And gravity wants to bring me down
          Am7
Oh, I'll never know 

What makes this man
     D7
With all the love

That his heart can stand
  Gm/Bb             Eb9         D7
Dream of ways to throw it all away

[Segunda Parte]

      G                  C7M
Oh, gravity is working against me
      G                        C7M
And gravity wants to bring me down
      Am7
Oh, twice as much 

Ain't twice as good
     D7
And can't sustain 

Like a one half could
      Gm/Bb
It's wanting more 
              Eb9            D7
That's gonna send me to my knees

[Solo] G  C7M  G  C7M

[Tab - Solo]

[Parte 01 De 04]
E|-5h7/10~-7p5-7~--------------------------------------|
B|-----------------0--0-0-0-0--0-0---------------------|
G|-----------------0--0-0-0-0--0-0---------------------|
D|-----------------0--0-0-0-0--0-0---------------------|
A|-------------0---0--0-0-0-0--0-0---------------------|
E|-----------------------------------------------------|
                   ↓  ↑ ↓ ↑ ↓  ↑ ↓

Parte 02 de 04
E|-5h7/12~-10h7-----7----------------------------------|
B|--------------10~---8~--8-8-8-8--8-8-----------------|
G|------------------------0-0-0-0--0-0-----------------|
D|------------------------0-0-0-0--0-0-----------------|
A|-----------------------------------------------------|
E|--------------0--------------------------------------|
                          ↑ ↓ ↑ ↓  ↑ ↓

Parte 03 de 04
E|-----7------------------------7----------------------|
B|-----------10~--10-10-10------------10~-10-10-10-----|
G|-7h9---7h9-------7--7--7--7h9---7h9------7--7--7-----|
D|-----------------0--0--0-----------------0--0--0-----|
A|------------0----0--0--0------0----------0--0--0-----|
E|-----------------------------------------------------|
                   ↓  ↑  ↓                 ↓  ↑  ↓

Parte 04 de 04
E|-----7h8p7h8p7---------------------------------------|
B|---------------8---------------------------3---------|
G|-7h9-----------7h9p7h9p7--------7h9------0-----------|
D|-------------------------9-7h9~-----9\7~-------------|
A|-----------------------------------------------------|
E|-----0---------------------0-------------------------|

[Segunda Parte]

      Am7
Oh, twice as much 

Ain't twice as good
     D7
And can't sustain 

Like a one half could
      Gm/Bb
It's wanting more 
              Eb9            D7
That's gonna send me to my knees

[Terceira Parte]

      G                     C7M
Oh, gravity stay the hell away from me
      G
Oh, gravity 
                     C7M
Has taken better men     than me

How can that be

                        G
Just keep me where the light is
                        C7M
Just keep me where the light is
                        G
Just keep me where the light is
                            C7M
Come on, keep me where the light is

                            G
Come on, keep me where the light is

Come on, keep me where
                   C7M      G  C7M  G
Keep me where the light is
Página 1 / 1

Letras e título
Acordes e artista

resetar configurações
OK