Cifra Club

Aprenda

I Guess I Just Feel Like

John Mayer

Cifra: Principal (violão e guitarra)
Tom: B (forma dos acordes no tom de A) Capotraste na 2ª casa
[Primeira Parte]

                A        D
I guess I just feel like
                A        D
I guess I just feel like
          F#m7
Nobody's honest
           D
Nobody's true
             F#m7
Everyone's lying
           D
To make it on through
                A       D
I guess I just feel like
              A      D
I'm the same way too

( A  D )
( A  D )

[Segunda Parte]

                A        D
I guess I just feel like
                 A   D
Good things are gone
                      A      D
And the weight of my worries
                A      D
Is too much to take on
             F#m7
I think I remember
                D
The dream that I had
                   F#m7
That love's gonna save us
                          D
From a world that's gone mad
                A        D
I guess I just feel like
                   A   D
What happened to that?

[Solo] G  F#m7 
       G  F#m7 E 
       A  D  A  D 

          G                                    F#m7           
E|----------------------------------------------------------|
B|--------10b12---10b12-10-12~------------------------------|
G|------7----------------------9b11-7~--7-9-7---------------|
D|-7/9-----------------------------------------9b10-7/5\7~--|
A|----------------------------------------------------------|
E|----------------------------------------------------------|

              G                                          
E|-----------------------------10~--10/12-10~---------------|
B|----------------------------------------------------------|
G|-----------------------7h9--------------------------------|
D|---------7--------7h9-------------------------------------|
A|----7/9----9-10~------------------------------------------|
E|----------------------------------------------------------|

E|-12b14r12-10~--10-12-10-----------------------------------|
B|----------------------------------------------------------|
G|----------------------------------------------------------|
D|----------------------------------------------------------|
A|----------------------------------------------------------|
E|----------------------------------------------------------|

      F#m7                     E              A
E|----------------------------------------------------------|
B|-12b14r12-10----10~--10-12--7b9---5-5~--10/12\10~---------|
G|-------------12-------------------------------------------|
D|----------------------------------------------------------|
A|----------------------------------------------------------|
E|----------------------------------------------------------|
      
    D            A            D  
E|----------------------------------------------------------|
B|---------------7/9~--9------------------------------------|
G|-------------------------11-9-----------------------------|
D|---9~--7h9p6-------------------9~-------------------------|
A|-7--------------------------------------------------------|
E|----------------------------------------------------------|

[Terceira Parte]

                A       D
I guess I just feel like
               A       D
The joke's getting old
               A     D
The future is fading
                A       D
And the past is on hold

                    F#m7
But I know that I'm open
                      D
And I know that I'm free
                     F#m7
And I'll always let hope in
               D
Wherever I'll be
           F#m7
And if I go blind
                   D
I'd still find my way
                A       D
I guess I just felt like
           A    D
Giving up today

[Final] A  G  D9
        A  G  D9 
        A  G  D9
        A  G  D9
Composição de John Mayer
Colaboração e revisão:
  • Getúlio Vasconcelos
  • Andre Botoni
5.178 exibições
    • ½ Tom
    • A
    • Bb
    • B
    • C
    • Db
    • D
    • Eb
    • E
    • F
    • F#
    • G
    • Ab
  • Adicionar à lista

    0 comentários

    Mostrar mais comentários

    Conseguiu tocar?

    2 Tocaram 0 Ainda não

    Grave um vídeo tocando I Guess I Just Feel Like e mande pra gente!

    00:00 / 00:00
    outros vídeos desta música
    repetir qualidade Automático
    Outros vídeos desta música
    00:00 / 00:00
    Automático

    Cifra Club Pro

    Aproveite o Cifra Club com benefícios exclusivos e sem anúncios
    7 dias grátis
    Cifra Club Pro
    Aproveite o Cifra Club com benefícios exclusivos e sem anúncios
    7 dias grátis
    OK