Cifra Club

Slow Dancing In A Burning Room

John Mayer

Cifra: Aula-guitarra (violão e guitarra)
tom: E
[Intro] C#m  A  E  C#m  A  E  
        C#m  A  E  C#m  A  E  

[Tab - Intro Guitarra 1]

Parte 1 de 4
            C#m                      A        E
E|---------------x-------------------------------------|
B|---------------x-------------------5-----5--5--------|
G|-------9-------9----9---8--11--9---4h6---4--4--------|
D|---------------x----11--9--11--9---x-----x--4h6------|
A|-9/11----------11----------11--9---0-----0--x--------|
E|----------9----9----------------------------0--------|

Parte 2 de 4
            C#m                      A        E  
E|---------------x-------------------------------------|
B|---------------x-------------------5-----5--5--------|
G|-------9-------9----9---8--11--9---4-----4--4--------|
D|-9/11----------11---11--9--11--9---4h6---4--6--------|
A|---------------X-----------11--9---0-----0--7--------|
E|----------9----x----------------------------0--------|

Parte 3 de 4
   C#m                         A         E          
E|------x----------------------------------------------|
B|------x----------------------5----5h7--5-------------|
G|-9----9-------------9--------6----6----4-------------|
D|-11---11------------9--------7----7----4h6------9h11-|
A|-X----x-------9h11-----11\---0---------x----9h11-----|
E|-9----9--------------------------------0-------------|

Parte 4 de 4
   C#m                          A         E          
E|------x----------------------------------------------|
B|------x-----------------------5----5| H7--5------------|
G|-9----9-------------9---------6----6----4------------|
D|-11---11------------9---------7----7----4h6----------|
A|-X----x-------9h11-----11\----0---------x------------|
E|-9----x---------------------------------0------------|

[Tab - Intro Guitarra 2]

Parte 1 de 2
E|-12--14/16------14/16\14---12--11--11/12----11--7----|
B|-14--16/17------16/17\16---14--12--12/14----12--9----|
G|-----------------------------------------------------|
D|-----------------------------------------------------|
A|-----------------------------------------------------|
E|-----------------------------------------------------|

Parte 2 de 2
E|-12--14/16------14/16\14---12--11--7----9------------|
B|-14--16/17------16/17\16---14--12--9----7--9---------|
G|-------------------------------------------9---------|
D|-----------------------------------------------------|
A|-----------------------------------------------------|
E|-----------------------------------------------------|

[Primeira Parte]

[Tab - Primeira Parte]

Parte 1 de 4           
   C#m 
E|---------x-------------------------------------------|
B|---------x-------------------------------------------|
G|-9---9---9---9-------------9-----9-------------------|
D|-11--11--11--11-------9----9h11--9-------------------|
A|-----X---x---X---9h11---11-------9h11----9-----------|
E|-9-------x----------------------------------12-------|

Parte 1 de 4     
   A          E          
E|-----------------------------------------------------|
B|-5----5h7---5----------------------------------------|
G|-6----6-----4----------4-----------------------------|
D|-7----7-----4h6----4h6---6-4-------------------------|
A|-0----------X----------------7-----------------------|
E|------------0----------------------------------------|

Parte 2 de 4                  
   C#m
E|---------x-------------------------------------------|
B|---------x-------------------------------------------|
G|-----9---9---9------------9--9-----------------------|
D|-----11--11--11-----------9--9-----------------------|
A|-----X---x----------9h11--------11--9----------------|
E|-9-------x-------------------------------------------|

Parte 2 de 4                    
   A          E 
E|-----------------------------------------------------|
B|-5----5h7---5----------------------------------------|
G|-6----6-----4----------------------------------------|
D|-7----7-----4h6--------------------------------------|
A|-0----------X------10\9p7----------------------------|
E|------------0-------------9-7------------------------|

Parte 3 de 4   
   C#m
E|---------x-------------------------------------------|
B|---------x-------------------------------------------|
G|-9---9---9---9----------9--11------------------------|
D|-11--11--11--11---------9--11------------------------|
A|-X---X---x---X----10/11-------11---------------------|
E|-9-------x-------------------------------------------|

Parte 3 de 4              
   A          E
E|-----------------------------------------------------|
B|-5----5h7---5----------------------------------------|
G|-6----6-----4----------------------------------------|
D|-7----7-----4h6--------------------------------------|
A|-0----------X------10\9p7-9/11-----------------------|
E|------------0----------------------------------------|

Parte 4 de 4       
   C#m                            A         E          
E|---------x-------------------------------------------|
B|---------x----------------------------5---5----------|
G|-----9---9---9---9---8--11--9---4-----4---4----------|
D|-----x---x---x---11--9--11--9---4h6---4---6----------|
A|-11--11--11--11---------11--9---0-----0---7----------|
E|-9---x---x---x----------------------------0----------|

            C#m
It's not a silly little moment
               A               E
It's not the storm before the calm
             C#m
This is the deep and dying breath of
                           A      E
This love that we've been working on
 
               C#m
Can't seem to hold you like I want to
          A             E
So I can feel you in my arms
          C#m
Nobody's gonna come and save you
                    A           E
We pulled too many false alarms

[Segunda Parte]

             B 
We're going down
             C#m       A
And you can see it too
             B
We're going down
          C#m            F#m
And you know that we're doomed
    C#m
My dear
                         A       E
We're slow dancing in a burning room

( C#m  A  E  C#m  A  E )

[Primeira Parte]

          C#m     
I was the one you always dreamed of
             A                E
You were the one I tried to draw
              C#m     
How dare you say it's nothing to me?
                       A            E
Baby, you're the only light I ever saw
               C#m     
I'll make the most of all the sadness
             A                 E
You'll be a bitch because you can
            C#m
You try to hit me just to hurt me

So you leave me feeling dirty
           A              E
'Cause you   can't understand

[Segunda Parte]

             B 
We're going down
             C#m       A
And you can see it too
             B
We're going down
          C#m            F#m
And you know that we're doomed
    C#m
My dear
                         A       E
We're slow dancing in a burning room

[Solo] C#m  A  E  C#m  A  E

[Tab - Solo Guitarra Base]

Parte 1 de 2
   C#m                               A      E          
E|------x----------------------------------------------|
B|------x--------------------------------5--5----------|
G|-9----9-------------9--------9-----6---6--4----------|
D|-11---11------------9--------9| H11--7---7--6------9h11|
A|-X----x-------9h11-----11----------0------x-9h11-----|
E|-9----9-----------------------------------0----------|

Parte 2 de 2
   C#m                               A      E          
E|------x----------------------------------------------|
B|------x--------------------------------5--5----------|
G|-9----9-------------9--------9-----6---6--4----------|
D|-11---11------------9--------9| H11--7---7--6----------|
A|-X----x-------9h11-----11----9h11--0------x----------|
E|-9----9-----------------------------------0----------|

[Tab - Solo]

Parte 1 de 4
E|-----------------------------------------------------|
B|-9--12-14b16r14~~--9b12r9~~--------------------------|
G|-----------------------------11b13r11b13r11p9--------|
D|-----------------------------------------------------|
A|----------------------------------------------9/11---|
E|-----------------------------------------------------|

Parte 2 de 4
E|--------9--12b---9---12b---9---12b14-12~~------------|
B|-9--12-------------9---------9-----------------------|
G|-----------------------------------------------------|
D|-----------------------------------------------------|
A|-----------------------------------------------------|
E|-----------------------------------------------------|

Parte 3 de 4
E|-9---------------------------------------------------|
B|---12-9----------------------------------------------|
G|--------11b12-11p9------11b13--9--11----9------------|
D|--------------------11--------------------11-9-------|
A|-----------------------------------------------------|
E|-----------------------------------------------------|

Parte 4 de 4
E|-----------------------------------------------------|
B|-12/14__\12/14\12------------------------------------|
G|-11/13__\11/13\11------------------------------------|
D|-------------------------2---------------------------|
A|---------------------2h4-----4--2--------------------|
E|-----------------------------------4--2--------------|

[Terceira Parte]

[Tab - Terceira Parte Guitarra 1]

Parte 1 de 8
   F#m7(11)/C#     C#m
E|-0-------0--0----------------------------------------|
B|-0-------0--0----------------------------------------|
G|-2----2--2--2----9--9--9--9-------9--9---------------|
D|-4----4--4--4----11-11-11-11------11-11--------------|
A|-4----4--4--4----x--x--x--x--x----x--x--x------------|
E|-----------------9--9--9--9--9----9--9--9------------|

Parte 2 de 8
   B               F#m7(11)/C#     
E|-----------------0-----------------------------------|
B|-7----7--7-------0-----------------------------------|
G|-8----8--8-------2-----------------------------------|
D|-9----9--9-------4---------2-------------------------|
A|-X----X--X-------4----4-------4----------------------|
E|-7----7--7-------2-----------------------------------|

Parte 3 de 8
   F#m7(11)/C#     C#m
E|-0-------0--0----------------------------------------|
B|-0-------0--0----------------------------------------|
G|-2----2--2--2----9--9--9--9-------9--9---------------|
D|-4----4--4--4----11-11-11-11------11-11--------------|
A|-4----4--4--4----x--x--x--x--x----x--x--x------------|
E|-----------------9--9--9--9--9----9--9--9------------|

Parte 4 de 8
   B               F#m7(11)/C#     
E|-----------------0-----------------------------------|
B|-7----7--7-------0-----------------------------------|
G|-8----8--8-------2-----------------------------------|
D|-9----9--9-------4---------2-------------------------|
A|-X----X--X-------4----4-------4----------------------|
E|-7----7--7-------2-----------------------------------|

Parte 5 de 8
   F#m7(11)/C#     C#m
E|-0-------0--0----------------------------------------|
B|-0-------0--0----------------------------------------|
G|-2----2--2--2----9--9--9--9-------9--9---------------|
D|-4----4--4--4----11-11-11-11------11-11--------------|
A|-4----4--4--4----x--x--x--x--x----x--x--x------------|
E|-----------------9--9--9--9--9----9--9--9------------|

Parte 6 de 8
   B               A
E|-----------------------------------------------------|
B|-7----7--7-------5-----------------------------------|
G|-8----8--8-------6-----------------------------------|
D|-9----9--9-------7-----------------------------------|
A|-X----X--X-------X-----------------------------------|
E|-7----7--7-------5-----4------7----------------------|

Parte 7 de 8
   C#m
E|-----------------------------------------------------|
B|-9----9--9--9-----9--9--9--9----------9----9--9------|
G|-9----9--9--9-----9--9--9--9----------9----9--9------|
D|-11---11-11-11----11-11-11-11---------11---11-11-----|
A|-X----X--X--X-----X--X--X--X----------X----X--X------|
E|-9----9--9--9-----9--9--9--9--9-------9----9--9------|

Parte 8 de 8
   A                E
E|-----------------------------------------------------|
B|-5----5--5--5-----5--5--5--5----------5----5--5------|
G|-6----6--6--6-----4--4--4--4----------4----4--4------|
D|-7----7--7--7-----6--6--6--6--6-------6----6--6------|
A|-X----X--X--X-----7--7--7--7--7-------7----7--7------|
E|-5----5--5--5-----0--0--0--0--0-------0----0--0------|

[Tab - Terceira Parte Guitarra 2]

Parte 1 de 3 - 3x
E|-----------------------------------------------------|
B|-----------------------------------------------------|
G|-8--9--8--9--8--9--8--9--8--9--8--9--8--9--8--9------|
D|-9--9--9--9--9--9--9--9--9--9--9--9--9--9--9--9------|
A|-----------------------------------------------------|
E|-----------------------------------------------------|

Parte 2 de 3  
E|-----------------------------------------------------|
B|-9----10-9---10----9--10-9--10-9--10-9--10-9-10-9-10-|
G|-9----9--9---9-----9--9--9--9--9--9--9--9--9-9--9-9--|
D|-11---11-11--11----11-11-----------------------------|
A|-----------------------------------------------------|
E|-----------------------------------------------------|

Parte 3 de 3  
   A                E
E|-----------------------------------------------------|
B|-5----5--5--5-----5--5--5--5-------------------------|
G|-6----6--6--6-----4--4--4--4-------------------------|
D|-7----7--7--7-----6--6--6--6--6----------------------|
A|-X----X--X--X-----7--7--7--7--7----10\9p7------------|
E|-5----5--5--5-----0--0--0--0--0------------9--7------|

[Tab - Terceira Parte Guitarra 3]

Parte 1 de 4
E|-----------------------------------------------------|
B|-12---12b14----9b10___r9b10r9~~----------------------|
G|-----------------------------------------------------|
D|-----------------------------------------------------|
A|-----------------------------------------------------|
E|-----------------------------------------------------|

Parte 2 de 4
E|-----------------------------------------------------|
B|-12---12b14----9b10___r9b10r9~~----------------------|
G|-----------------------------------------------------|
D|-----------------------------------------------------|
A|-----------------------------------------------------|
E|-----------------------------------------------------|

Parte 3 de 4
E|-----------------------------------------------------|
B|-12b14r12~~--9b10___r9\5---9b10r9b10r9b...-----------|
G|-----------------------------------------------------|
D|-----------------------------------------------------|
A|-----------------------------------------------------|
E|-----------------------------------------------------|

Parte 4 de 4
E|-----------------------------------------------------|
B|-----------------------------------------------------|
G|---------9/11\9~~------------------------------------|
D|-9h11------------------------------------------------|
A|----------------------10\9p7-------------------------|
E|-----------------------------9--7--------------------|

     F#m7(11)/C#   C#m          A  F#m7(11)
Go cry about it, why don't you?
     F#m7(11)/C#   C#m          A  F#m7(11)
Go cry about it, why don't you?
     F#m7(11)/C#   C#m          A  F#m7(11)
Go cry about it, why don't you?
    C#m
My dear
                         A       E
We're slow dancing in a burning room

[Parte Final]

[Tab - Parte Final - Guitarra 2]

Parte 1 de 2
   C#m
E|-----------------------------------------------------|
B|-9----9--9--9-----9--9--9--9----------9----9--9------|
G|-9----9--9--9-----9--9--9--9----------9----9--9------|
D|-11---11-11-11----11-11-11-11---------11---11-11-----|
A|-X----X--X--X-----X--X--X--X----------X----X--X------|
E|-9----9--9--9-----9--9--9--9--9-------9----9--9------|

Parte 1 de 3
   A                E
E|-----------------------------------------------------|
B|-5----5--5--5-----5--5--5--5----------5----5--5------|
G|-6----6--6--6-----4--4--4--4----------4----4--4------|
D|-7----7--7--7-----6--6--6--6--6-------6----6--6------|
A|-X----X--X--X-----7--7--7--7--7-------7----7--7------|
E|-5----5--5--5-----0--0--0--0--0-------0----0--0------|

( C#m  A  E  C#m  A  E )

                            C#m
Don't you think we oughta know by now?
                                 A          E   
Don't you think we should have learned somehow?
                            C#m
Don't you think we oughta know by now?
                                 A          E   
Don't you think we should have learned somehow?
                            C#m
Don't you think we oughta know by now?
                                 A          E   
Don't you think we should have learned somehow?

[Final] C#m  A  E  C#m  A  E 
        C#m  A  E  C#m  A  E 
00:00 / 00:00
Outros vídeos desta música
Repetir
Outros vídeos desta música
Composição de John Mayer
256.573 exibições
  • Simplificar cifra
    • ½ Tom
    • A
    • Bb
    • B
    • C
    • Db
    • D
    • Eb
    • E
    • F
    • F#
    • G
    • Ab
  • Adicionar à lista

    0 comentários

    Ver todos os comentários

    Entre para oCifra Club PRO

    Tenha acesso a benefícios exclusivos no App e no Site

    • Chega de anúncios

    • Prioridade de compra em lançamentos

    • Mais recursos no app do Afinador

    • Atendimento Prioritário

    • Descontos nos produtos Cifra Club

    • Ajude a produzir mais conteúdo

    00:00 / 00:00
    Capítulos
    • Tocando a Música
    • Acordes Introdução
    • Formas do CAGED
    • Ensinando Introdução - Guitarra 1
    • Ensinando Introdução - Guitarra 2
    • Ensinando Primeira Parte
    • Acordes Segunda Parte
    • Ensinando Segunda Parte - Guitarra 1
    • Ensinando Segunda Parte - Guitarra 2
    • Ensinando Base do Solo
    • Ensinando Solo
    • Ensinando Terceira Parte - Guitarra 1
    • Ensinando Terceira Parte - Guitarra 2
    • Ensinando Terceira Parte - Guitarra 3
    • Ensinando Final - Guitarra 2
    • Encerramento

    Cifra Club Pro

    Aproveite o Cifra Club com benefícios exclusivos e sem anúncios
    Cifra Club Pro
    Aproveite o Cifra Club com benefícios exclusivos e sem anúncios
    OK