Cifra Club

Aprenda

The Heart Of Life

John Mayer

Cifra: Principal (violão e guitarra)
Tom: D
Introdução

Base Intro
1
  D
E|------------------------------------------|
B|10-------10-----------10---------12-------|
G|11----11---------11---11----11---11----11\|
D|12----12------12-12---------12---12----12\|
A|------x----------x----------x----------x-\|
E|10----x----10----x----10----x----10----x-\|

2
   Bm
E|------------------------------------------|
B|-7--------7------------7---------10-------|
G|-7----7----------7-----7----7----7-----7\-|
D|-9----9-------9--9----------9----9-----9\-|
A|------x----------x----------x----------x\-|
E|-7----x----7-----x-----7----x----7-----x\-|

3
   F#m                   G
E|------------------------------------------|
B|-2--------2------------3---------3--------|
G|-2----2----------2-----4----4----4-----4--|
D|-4----4-------4--4----------5----5--5--5--|
A|------x----------x----------x----------x--|
E|-2----x----2-----x-----3----x----3-----x--|

4
   D/F#                  A
E|------------------------------------------|
B|-3--------3------------2---------2--------|
G|-2----2----------2-----2----2----2-----2/-|
D|-0----0-------0--0----------2----2--2--2/-|
A|------x----------x-----0----x----0-----x/-|
E|-2----x----2-----x----------x----------x/-|


Solo Intro

1
E|-------------------10-------------------------------|
B|-10~--10-12--12b14------7~----7-10b12-10------------|
G|----------------------------9-----------------------|
D|----------------------------------------------------|
A|----------------------------------------------------|
E|----------------------------------------------------|

2
E|----------------------------------------------------|
B|----8~-7~-------------------------------------------|
G|-6~--------9p7--------------------------------------|
D|---------------7~-----------------------------------|
A|----------------------------------------------------|
E|----------------------------------------------------|


Primeira Parte
1

  D
E|---------------------------------9-----10-|
B|10-------10-----------10----12---12----12\|
G|11----11---------11---11----11---11----11\|
D|12----12------12-12----------------------\|
A|------x----------x----------x----------x-\|
E|10----x----10----x----10----x----10----x-\|


2
   Bm
E|---------------------------------9--------|
B|-7--------7------------7----10---7-----10\|
G|-7----7----------7-----7----7----7-----7-\|
D|-9----9-------9--9---------------------9-\|
A|------x----------x----------x----------x-\|
E|-7----x----7-----x-----7----x----7-----x-\|


3
   F#m                   G
E|------------------------------------------|
B|-2--------2------------3--------3---------|
G|-2----2----------2-----4----4-----------4-|
D|-4----4-------4--4----------5--------5--5-|
A|------x----------x----------x-----------x-|
E|-2----x----2-----x-----3----x-----3-----x-|


4
   D/F#                  A
E|------------------------------------------|
B|-3--------3------------2--------2---------|
G|-2----2----------2-----2----2----------2/-|
D|-0----0-------0--0----------2-------2--2/-|
A|------x----------x-----0----x----0-----x/-|
E|-2----x----2-----x----------x----------x/-|


D                   Bm
I hate to see you cry
                 F#m  G   D/F#  A
Lying there in that  po__si____tion
  D                         Bm
There's things you need to hear
                  F#m
So turn off your tears
G    D/F# A
And lis__ten


Refrão

1
  A                     D
E|------------------------------------------|
B|--------------5-------7--------5----------|
G|6--------7------------7-------------7--7\-|
D|7--------7------------7----------------7\-|
A|------x----------x----5-----x----5-----x\-|
E|5-----x----5-----x----------x----------x\-|

2
  G
E|------------------------------------------|
B|3-------3--------------------3----------3-|
G|4----4----------4-----2h4--4-----2h4--4---|
D|5----5-------5--5-----5----5-----5----5---|
A|-----x----------x----------x----------x---|
E|3----x----3-----x-----3----x-----3----x---|

1
  A                     D
E|------------------------------------------|
B|--------------5-------7--------5----------|
G|6--------7------------7-------------7--7\-|
D|7--------7------------7----------------7\-|
A|------x----------x----5-----x----5-----x\-|
E|5-----x----5-----x----------x----------x\-|

2
  G
E|------------------------------------------|
B|3-------3--------------------3----------3-|
G|4----4----------4-----2h4--4-----2h4--4---|
D|5----5-------5--5-----5----5-----5----5---|
A|-----x----------x----------x----------x---|
E|3----x----3-----x-----3----x-----3----x---|

1
  A                     D
E|------------------------------------------|
B|--------------5-------7--------5----------|
G|6--------7------------7-------------7--7\-|
D|7--------7------------7----------------7\-|
A|------x----------x----5-----x----5-----x\-|
E|5-----x----5-----x----------x----------x\-|

3
  G                     D/F#
E|------------------------------------------|
B|--------3-------------3------3------------|
G|4----4----------4-----2----2-----------2--|
D|5----5-------5--5-----0----0--------0--0--|
A|-----x----------x----------x-----------x--|
E|3----x----3-----x-----2----x-----2-----x--|

3
  G                     D/F#
E|------------------------------------------|
B|--------3-------------3------3------------|
G|4----4----------4-----2----2-----------2--|
D|5----5-------5--5-----0----0--------0--0--|
A|-----x----------x----------x-----------x--|
E|3----x----3-----x-----2----x-----2-----x--|

4
  A
E|------------------------------------------|
B|2-------2---------------------------------|
G|2----2----------2-------------------------|
D|-----2-------2--2-------------------------|
A|0----x----0-----x-------------------------|
E|-----x----------x-------------------------|

5
  D
E|------------------------------------------|
B|10------10------------10------------------|
G|11---11---------11----11------------------|
D|-----12------12-12------------------------|
A|-----x----------x----------x-----------x--|
E|10---x----10----x-----10---x-----10----x--|


 A                D             G
Pain throws your heart to the ground
 A               D           G
Love turns the whole thing around
 A         D           G
No it wont all go the way
     D/F#
It should
        G       D/F#     A       D
But I know the heart of life is good


Repete Intro


Repete Primeira Parte

 D                    Bm
You know it's nothin new
                F#m  G    D/F#  A
Bad news never had  good ti____ming
  D                       Bm
Then the circle of your friends
                 F#m    D/F#  A
Will defend the silver li____ning


Repete Refrão

 A                D             G
Pain throws your heart to the ground
 A               D           G
Love turns the whole thing around
 A         D           G
No it wont all go the way
     D/F#
It should
        G       D/F#     A       D
But I know the heart of life is good


Solo

1
E|----------------------------------------------------|
B|-17b19~~--17b19---19b17--15-------------------------|
G|----------------------------16b18--14----14---------|
D|--------------------------------------16------------|
A|----------------------------------------------------|
E|----------------------------------------------------|

2
E|----------------------------------------------------|
B|-17---------15~--17b19r17p15--17~-------------------|
G|----16/18~------------------------------------------|
D|----------------------------------------------------|
A|----------------------------------------------------|
E|----------------------------------------------------|

3
E|----------17----------------------------------------|
B|-17b19~~-----19b17--15--------17--------------------|
G|------------------------16b18----16b18--------------|
D|----------------------------------------------------|
A|----------------------------------------------------|
E|----------------------------------------------------|

4
E|----------------------------------------------------|
B|------------15~---17h19--17/19~--19/22--17~-h19/22--|
G|-14--16b18~-----------------------------------------|
D|----------------------------------------------------|
A|----------------------------------------------------|
E|----------------------------------------------------|

Refrão Final

1
  A7                   A4(7/13)
E|------------------------------------------|
B|2-------2------------3--------3-----------|
G|0----0----------0----0-----0-----------0--|
D|-----2-------2--2----------4--------4--4--|
A|0----x----0-----x----0-----x-----0-----x--|
E|-----x----------x----------x--------------|


2
  A7                   A4(7/13)
E|------------------------------------------|
B|5-------5------------3--------3-----------|
G|0----0----------0----0-----0-----------0--|
D|-----5-------5--5----------4--------4--4--|
A|0----x----0-----x----0-----x-----0-----x--|
E|-----x----------x----------x--------------|


 A                D             G
Pain throws your heart to the ground
 A               D           G
Love turns the whole thing around
 A          D
Fear is a friend who is
   G      D/F#
Misunderstood
        G       D/F#     G       D/F#
But I know the heart of life is good
    A7       A4(7/13)  A7  A4(7/13)
I know it's good

   A7  A4(7/13)  A7  A4(7/13)
Composição de John Mayer
Colaboração e revisão:
  • Caio Costa
  • Henrique
55.124 exibições
    • ½ Tom
    • A
    • Bb
    • B
    • C
    • Db
    • D
    • Eb
    • E
    • F
    • F#
    • G
    • Ab
  • Adicionar à lista

    0 comentários

    Mostrar mais comentários

    Conseguiu tocar?

    12 Tocaram 1 Ainda não

    Grave um vídeo tocando The Heart Of Life e mande pra gente!

    00:00 / 00:00
    outros vídeos desta música
    repetir qualidade Automático
    Outros vídeos desta música
    00:00 / 00:00
    Automático
    Capítulos
    • Início
    • Afinação
    • Tocando a Música
    • Acordes da Introdução
    • Tocando Introdução
    • Ensinando Introdução (Base)
    • Ensinando Introdução (Guitarra)
    • Acordes da Primeira Parte
    • Tocando Primeira Parte
    • Ensinando Primeira Parte
    • Acordes do Refrão
    • Tocando Refrão
    • Ensinando Refrão
    • Dicas Solo
    • Tocando Solo
    • Ensinando Solo
    • Acordes do Refrão Final
    • Tocando Refrão Final
    • Ensinando Refrão Final
    • Encerramento

    Cifra Club Pro

    Aproveite o Cifra Club com benefícios exclusivos e sem anúncios
    7 dias grátis
    Cifra Club Pro
    Aproveite o Cifra Club com benefícios exclusivos e sem anúncios
    7 dias grátis
    OK