Cifra Club

Aprenda

Who You Love

John Mayer

Cifra: Principal (violão e guitarra)
Já pensou em usar uma coleção de roupas do Cifra Club? Responda as perguntas abaixo e nos ajude nessa missão! →
tom: A
[Intro]  E A D9
         E A D9

E|-----------------------------------|
B|--12-14b15r14---14p12--------------|
G|----------------------14\11-11/14--|
D|-----------------------------------|
A|-----------------------------------|
E|-----------------------------------|

    E            A            D9
You love who you love who you love
    E            A            D9
You love who you love who you love
   E                  A              D9
My girl she ain't the one that I saw coming
E                 A                 D9
sometimes I don't know which way to go
      E            A                  D9
and I tried to run before but I'm not running any more
        E                 A              D9
Cause I fought against it hard enough to know
         E            A        D9
That you love who you love who love
    E            A        D9
you love who you love who love
    E            A        D9
you love who you love who love
         C#m                F#m                          Bm
you cant make yourself stop dreaming you you're dreaming of
                E    A                  D9
If it's who you love, then it's who you love

( E A D9 )

E|---------------------------------|
B|--12/14-12--12/14-10----10-------|
G|---------------------11----9/11--|
D|---------------------------------|
A|---------------------------------|
E|---------------------------------|

   E                A              D9
My boy he ain't the one that I saw coming
    E                  A                   D9
and some have said his heart's too hard to hold
       E              A
and it takes a little time
                   D9
but you should see him when he shines
          E             A                D9
cause you never want to let that feeling go
         E            A            D9
when you love who you love who you love.
    E            A            D9
you love who you love who you love.
        E            A            D9
yeah you love who you love who you love
             C#m                F#m                          Bm
ooh you cant make yourself stop dreaming who you're dreaming of
                E    A                  D9
If it's who you love, then it's who you love.

( C#m  F#m  Bm ) 
( C#m  F#m  Bm ) 
( C#m  F#m  Bm ) 
( C#m  F#m  Bm ) 

        E            A            D9
Ohh you love who you love who you love...
             C#m                F#m                          Bm
ooh you cant make yourself stop dreaming who you're dreaming of
                E    A                  D9
If it's who you love, then it's who you love.

( E A D9 )

E|--------------------------------------------------------------|
B|--12/14-12--12/14-10----10----10---12--14-17b19r17--15\14-14--|
G|---------------------11----11---------------------------------|
D|--------------------------------------------------------------|
A|--------------------------------------------------------------|
E|--------------------------------------------------------------|

E|-------------------------------------12-12--------------------------|
B|--10-12b13r12-10------14p12----12/14----------14p12--------10-------|
G|-----------------11---------14----------------------14--11----9/11--|
D|--------------------------------------------------------------------|
A|--------------------------------------------------------------------|
E|--------------------------------------------------------------------|

E|-----------------------------------|
B|--12-14b15r14---14p12--------------|
G|----------------------14\11-11/14--|
D|-----------------------------------|
A|-----------------------------------|
E|-----------------------------------|
Composição de . Katy Perry / John Mayer
Colaboração e revisão:
  • Gilson Feitosa
  • Lucas Peres
  • Vivian Alves
22.734 exibições
    • ½ Tom
    • A
    • Bb
    • B
    • C
    • Db
    • D
    • Eb
    • E
    • F
    • F#
    • G
    • Ab
  • Adicionar à lista

    0 comentários

    Ver todos os comentários

    Conseguiu tocar?

    14 Tocaram 0 Ainda não

    Grave um vídeo tocando Who You Love e nos envie!

    00:00 / 00:00
    Outros vídeos desta música
    Repetir Qualidade Automático
    Outros vídeos desta música
    00:00 / 00:00
    Automático

    Cifra Club Pro

    Aproveite o Cifra Club com benefícios exclusivos e sem anúncios
    Cifra Club Pro
    Aproveite o Cifra Club com benefícios exclusivos e sem anúncios
    OK