Ghost Riders In The Sky

Johnny Cash

Composição de: Stan Jones
tom: Db (forma dos acordes no tom de C ) Capotraste na 1ª casa
[Intro] Am

   Am                        
An old cowboy went ridin' out 
     C
One dark and windy day
  Am
Upon a ridge he rested as 

He went along his way
     Am
When all at once a mighty 

Herd of red eyed cows he saw
  F                            
Plowin' through the ragged skies
    Am
And up a cloudy draw

        Am                      
Their brands were still on fire 
           C
And their hooves were made of steel
       Am                                   
Their horns were black and shiny 

And their hot breaths he could feel
   Am
A bolt of fear went through him 

As they thundered through the sky
        F                        
For he saw the riders coming hard
        Am
And he heard their mournful cry

 Am        C
Yippie aye oh
           Am
Yippie aye ay
  F                   Am
Ghost riders in the sky

E|-------------------------------------------------------------------------|
B|-------------------------------------------------------------------------|
G|-------------------------------------------------------------------------|
D|-----------------------------------------------0-2--2------2~~-----------|
A|---0-00-2-3-33-0-------------------0-00-2-3-33-----------3---------------|
E|-0---------------3-33--0--3~~~~--0---------------------------------------|

E|-------------------------------------------------------------------------|
B|-------------------------------------------------------------------------|
G|-----2--2--0-2p0---------------------------------------------------------|
D|-2-2-------------2--0h2*--0h2*-2-----------------------------------------|
A|--------------------------------3p-0-------------3--3*3~~~~3-3-0-0---0~~~|
E|----------------------------------------0-1~~1-1-------------------3~----|

       Am                                   
Their face's gaunt, their eyes were blurred
        C
Their shirts all soaked with sweat
        Am                          
He's ridin' hard to catch that herd 
       C
But he ain't caught 'em yet
        Am
Cause they've got to ride forever 

On the range up in the sky
    F                   
On horses snorting fire
         Am
As they ride on hear them cry

        Am                     
As the riders loped on by him 
    C
He heard one call his name
        Am                    
If you want to save your soul 
             C
From hell a-riding on our range
      Am
Then cowboy change your ways today 

Or with us you will ride
           F                     
Tryin' to catch the Devil's herd
   Am
Across these endless skies

Am         C
Yippie aye oh
           Am
Yippie aye ay
F                   Am
Ghost riders in the sky
F                   Am
Ghost riders in the sky
F                   Am
Ghost riders in the sky
Página 1 / 1

Letras e título
Acordes e artista

resetar configurações
OK