Cifra Club

Heart Of Gold

Johnny Cash

Cifra: Tab-guitarra (violão e guitarra)
tom: Bb
Primeiro solo 

E|------------------------------------------------------------------------------------------------
B|-15^---13---------------------------------------------------------------------------------------
G|-------------15-------19 17------17/19-------17--15--14~----------------------------------------
D|-----------------------------20-----------------------------19--17*-----------------------------
A|----------------------------------------------------------------------19-17-19-------------17---
E|------------------------------------------------------------------------------------------------

E|---------------------------------------------------------------------
B|---------------------------------------------------------------------
G|---------------------------------------------------------------------
D|---------------------------15----------------------------------------
A|---------17/15--13--15/17------15-13-15-13---13h15p13--12-13---------
E|--------------------------------------------------------------13~----

E|----------------------------------------------------------------------------------------------------
B|----------------------------------------------------------------------------------------------------
G|-17^-17^--15--17^-17^-17^--15--14~--15^--15~-------------12^-12^-12^--12---10~--10~---12/14---12----
D|------------------------------------------------15-12-----------------------------------------------
A|----------------------------------------------------------------------------------------------------
E|----------------------------------------------------------------------------------------------------


Segundo solo

E|-15^--13---------------13-------------------------10----
B|----------15----13/15------15--13--------13---11------11
G|------------------------------------15------------------
D|--------------------------------------------------------
A|--------------------------------------------------------
E|--------------------------------------------------------

E|----------------13--------15/17--17--15--13--15--13-----
B|--11-----13/15-------15-------------------------------15
G|--------------------------------------------------------
D|--------------------------------------------------------
A|--------------------------------------------------------
E|--------------------------------------------------------

E|---------13---------------------13-----13-------13--15--
B|--13/15------15----13--15-----------15-----15-----------
G|---------------------------15---------------------------
D|--------------------------------------------------------
A|--------------------------------------------------------
E|--------------------------------------------------------

E|--13----------------------------------------------------
B|------15/16/15------16--15--16--15-------15-------------
G|----------------15--------------------15----15---15-----
D|------------------------------------------------------15
A|--------------------------------------------------------
E|--------------------------------------------------------

E|--------------------------------------------------------
B|--------------------------------------------------------
G|--------------------14-14-14--12-----------------12-----
D|--15----13/12--13-----------------15--12--15--12--------
A|--------------------------------------------------------
E|--------------------------------------------------------
00:00 / 00:00
Outros vídeos desta música
Repetir
Outros vídeos desta música
Composição de Neil Young
Colaboração e revisão:
  • Eleazy Soares
946 exibições
    • ½ Tom
    • A
    • Bb
    • B
    • C
    • Db
    • D
    • Eb
    • E
    • F
    • F#
    • G
    • Ab
  • Adicionar à lista

    0 comentários

    Ver todos os comentários

    Conseguiu tocar?

    2 Tocaram 2 Ainda não

    Grave um vídeo tocando Heart Of Gold e nos envie!

    Entre para oCifra Club PRO

    Tenha acesso a benefícios exclusivos no App e no Site

    • Chega de anúncios

    • Prioridade de compra em lançamentos

    • Mais recursos no app do Afinador

    • Atendimento Prioritário

    • Descontos nos produtos Cifra Club

    • Ajude a produzir mais conteúdo

    00:00 / 00:00

    Cifra Club Pro

    Aproveite o Cifra Club com benefícios exclusivos e sem anúncios
    Cifra Club Pro
    Aproveite o Cifra Club com benefícios exclusivos e sem anúncios
    OK